  0
SECTION
  2
HEADER
  9
$ANGBASE
  50
0.0
  9
$ANGDIR
  70
1
  9
$MEASUREMENT
  70
1
  0
ENDSEC
  0
SECTION
  2
TABLES
  0
TABLE
  2
LTYPE
  70
4
  0
LTYPE
  5
40F
  2
CONTINUOUS
  70
0
  3
Solid line
  72
65
  73
0
  40
0.0
  0
LTYPE
  5
410
  2
DASHDOT
 70
0
  3
Dash Dot ____ _ ____ _
 72
65
 73
4
 40
2.0
 49
1.25
 49
-0.25
 49
0.25
 49
-0.25
  0
LTYPE
  5
411
  2
DASHED
 70
0
  3
Dashed __ __ __ __ __
 72
65
 73
2
 40
0.75
 49
0.5
 49
-0.25
  0
LTYPE
  5
43B
  2
DOTTED
 70
0
  3
Dotted .  .  .  .
 72
65
 73
2
 40
0.2
 49
0.0
 49
-0.2
  0
ENDTAB
  0
TABLE
  2
STYLE
  70
4
  0
STYLE
  2
KICAD
  70
0
  40
0
  41
1
  42
1
  50
0
  71
0
  3
isocp.shx
  0
STYLE
  2
KICADB
  70
0
  40
0
  41
1
  42
1
  50
0
  71
0
  3
isocp.shx
  0
STYLE
  2
KICADI
  70
0
  40
0
  41
1
  42
1
  50
15
  71
0
  3
isocp.shx
  0
STYLE
  2
KICADBI
  70
0
  40
0
  41
1
  42
1
  50
15
  71
0
  3
isocp.shx
  0
ENDTAB
  0
TABLE
  2
LAYER
  70
1
  0
LAYER
  2
BLACK
  70
0
  62
7
  6
CONTINUOUS
  0
ENDTAB
  0
ENDSEC
  0
SECTION
  2
ENTITIES
0
LINE
8
BLACK
6
CONTINUOUS
10
216
20
-40
11
216
21
-135
0
LINE
8
BLACK
6
CONTINUOUS
10
100
20
-40
11
216
21
-40
0
LINE
8
BLACK
6
CONTINUOUS
10
134
20
-135
11
100
21
-135
0
LINE
8
BLACK
6
CONTINUOUS
10
192
20
-135
11
192
21
-144.7
0
LINE
8
BLACK
6
CONTINUOUS
10
134.2
20
-145
11
191.7
21
-145
0
LINE
8
BLACK
6
CONTINUOUS
10
216
20
-135
11
192
21
-135
0
LINE
8
BLACK
6
CONTINUOUS
10
134
20
-135
11
134
21
-144.8
0
LINE
8
BLACK
6
CONTINUOUS
10
191.7
20
-145
11
192
21
-144.7
0
LINE
8
BLACK
6
CONTINUOUS
10
100
20
-40
11
100
21
-135
0
LINE
8
BLACK
6
CONTINUOUS
10
134
20
-144.8
11
134.2
21
-145
0
LINE
8
BLACK
6
CONTINUOUS
10
144.428
20
-130.483
11
144.828
21
-130.883
0
LINE
8
BLACK
6
CONTINUOUS
10
144.828
20
-130.483
11
144.428
21
-130.883
0
LINE
8
BLACK
6
CONTINUOUS
10
146.224
20
-111.833
11
146.624
21
-112.233
0
LINE
8
BLACK
6
CONTINUOUS
10
146.624
20
-111.833
11
146.224
21
-112.233
0
LINE
8
BLACK
6
CONTINUOUS
10
147.859
20
-98.8676
11
148.259
21
-99.2676
0
LINE
8
BLACK
6
CONTINUOUS
10
148.259
20
-98.8676
11
147.859
21
-99.2676
0
LINE
8
BLACK
6
CONTINUOUS
10
148.432
20
-130.833
11
148.832
21
-131.233
0
LINE
8
BLACK
6
CONTINUOUS
10
148.832
20
-130.833
11
148.432
21
-131.233
0
LINE
8
BLACK
6
CONTINUOUS
10
149.773
20
-130.088
11
150.173
21
-130.488
0
LINE
8
BLACK
6
CONTINUOUS
10
150.173
20
-130.088
11
149.773
21
-130.488
0
LINE
8
BLACK
6
CONTINUOUS
10
150.39
20
-88.5336
11
150.79
21
-88.9336
0
LINE
8
BLACK
6
CONTINUOUS
10
150.79
20
-88.5336
11
150.39
21
-88.9336
0
LINE
8
BLACK
6
CONTINUOUS
10
154.264
20
-130.781
11
154.664
21
-131.181
0
LINE
8
BLACK
6
CONTINUOUS
10
154.664
20
-130.781
11
154.264
21
-131.181
0
LINE
8
BLACK
6
CONTINUOUS
10
154.267
20
-95.7545
11
154.667
21
-96.1545
0
LINE
8
BLACK
6
CONTINUOUS
10
154.667
20
-95.7545
11
154.267
21
-96.1545
0
LINE
8
BLACK
6
CONTINUOUS
10
155.174
20
-129.764
11
155.574
21
-130.164
0
LINE
8
BLACK
6
CONTINUOUS
10
155.574
20
-129.764
11
155.174
21
-130.164
0
LINE
8
BLACK
6
CONTINUOUS
10
158.128
20
-128.828
11
158.528
21
-129.228
0
LINE
8
BLACK
6
CONTINUOUS
10
158.528
20
-128.828
11
158.128
21
-129.228
0
LINE
8
BLACK
6
CONTINUOUS
10
160.136
20
-130.772
11
160.536
21
-131.172
0
LINE
8
BLACK
6
CONTINUOUS
10
160.536
20
-130.772
11
160.136
21
-131.172
0
LINE
8
BLACK
6
CONTINUOUS
10
161.755
20
-103.011
11
162.155
21
-103.411
0
LINE
8
BLACK
6
CONTINUOUS
10
162.155
20
-103.011
11
161.755
21
-103.411
0
LINE
8
BLACK
6
CONTINUOUS
10
162.288
20
-129.528
11
162.688
21
-129.928
0
LINE
8
BLACK
6
CONTINUOUS
10
162.688
20
-129.528
11
162.288
21
-129.928
0
LINE
8
BLACK
6
CONTINUOUS
10
162.96
20
-130.33
11
163.36
21
-130.73
0
LINE
8
BLACK
6
CONTINUOUS
10
163.36
20
-130.33
11
162.96
21
-130.73
0
LINE
8
BLACK
6
CONTINUOUS
10
163.516
20
-88.105
11
163.916
21
-88.505
0
LINE
8
BLACK
6
CONTINUOUS
10
163.916
20
-88.105
11
163.516
21
-88.505
0
LINE
8
BLACK
6
CONTINUOUS
10
164.314
20
-130.1
11
164.714
21
-130.5
0
LINE
8
BLACK
6
CONTINUOUS
10
164.714
20
-130.1
11
164.314
21
-130.5
0
LINE
8
BLACK
6
CONTINUOUS
10
164.946
20
-126.798
11
165.346
21
-127.198
0
LINE
8
BLACK
6
CONTINUOUS
10
165.346
20
-126.798
11
164.946
21
-127.198
0
LINE
8
BLACK
6
CONTINUOUS
10
165.807
20
-129.95
11
166.207
21
-130.35
0
LINE
8
BLACK
6
CONTINUOUS
10
166.207
20
-129.95
11
165.807
21
-130.35
0
LINE
8
BLACK
6
CONTINUOUS
10
166.41
20
-130.783
11
166.81
21
-131.183
0
LINE
8
BLACK
6
CONTINUOUS
10
166.81
20
-130.783
11
166.41
21
-131.183
0
LINE
8
BLACK
6
CONTINUOUS
10
167.509
20
-130.607
11
167.909
21
-131.007
0
LINE
8
BLACK
6
CONTINUOUS
10
167.909
20
-130.607
11
167.509
21
-131.007
0
LINE
8
BLACK
6
CONTINUOUS
10
167.537
20
-126.636
11
167.937
21
-127.036
0
LINE
8
BLACK
6
CONTINUOUS
10
167.937
20
-126.636
11
167.537
21
-127.036
0
LINE
8
BLACK
6
CONTINUOUS
10
168.514
20
-106.988
11
168.914
21
-107.388
0
LINE
8
BLACK
6
CONTINUOUS
10
168.914
20
-106.988
11
168.514
21
-107.388
0
LINE
8
BLACK
6
CONTINUOUS
10
168.934
20
-113.128
11
169.334
21
-113.528
0
LINE
8
BLACK
6
CONTINUOUS
10
169.334
20
-113.128
11
168.934
21
-113.528
0
LINE
8
BLACK
6
CONTINUOUS
10
169.512
20
-96.3859
11
169.912
21
-96.7859
0
LINE
8
BLACK
6
CONTINUOUS
10
169.912
20
-96.3859
11
169.512
21
-96.7859
0
LINE
8
BLACK
6
CONTINUOUS
10
170.422
20
-126.783
11
170.822
21
-127.183
0
LINE
8
BLACK
6
CONTINUOUS
10
170.822
20
-126.783
11
170.422
21
-127.183
0
LINE
8
BLACK
6
CONTINUOUS
10
172.022
20
-81.2964
11
172.422
21
-81.6964
0
LINE
8
BLACK
6
CONTINUOUS
10
172.422
20
-81.2964
11
172.022
21
-81.6964
0
LINE
8
BLACK
6
CONTINUOUS
10
172.62
20
-108.795
11
173.02
21
-109.195
0
LINE
8
BLACK
6
CONTINUOUS
10
173.02
20
-108.795
11
172.62
21
-109.195
0
LINE
8
BLACK
6
CONTINUOUS
10
173.703
20
-129.745
11
174.103
21
-130.145
0
LINE
8
BLACK
6
CONTINUOUS
10
174.103
20
-129.745
11
173.703
21
-130.145
0
LINE
8
BLACK
6
CONTINUOUS
10
175.387
20
-128.738
11
175.787
21
-129.138
0
LINE
8
BLACK
6
CONTINUOUS
10
175.787
20
-128.738
11
175.387
21
-129.138
0
LINE
8
BLACK
6
CONTINUOUS
10
177.059
20
-129.205
11
177.459
21
-129.605
0
LINE
8
BLACK
6
CONTINUOUS
10
177.459
20
-129.205
11
177.059
21
-129.605
0
LINE
8
BLACK
6
CONTINUOUS
10
178.644
20
-129.735
11
179.044
21
-130.135
0
LINE
8
BLACK
6
CONTINUOUS
10
179.044
20
-129.735
11
178.644
21
-130.135
0
LINE
8
BLACK
6
CONTINUOUS
10
179.103
20
-89.5728
11
179.504
21
-89.9728
0
LINE
8
BLACK
6
CONTINUOUS
10
179.504
20
-89.5728
11
179.103
21
-89.9728
0
LINE
8
BLACK
6
CONTINUOUS
10
181.763
20
-126.124
11
182.163
21
-126.524
0
LINE
8
BLACK
6
CONTINUOUS
10
182.163
20
-126.124
11
181.763
21
-126.524
0
LINE
8
BLACK
6
CONTINUOUS
10
182.902
20
-131.101
11
183.302
21
-131.501
0
LINE
8
BLACK
6
CONTINUOUS
10
183.302
20
-131.101
11
182.902
21
-131.501
0
LINE
8
BLACK
6
CONTINUOUS
10
183.981
20
-130.853
11
184.381
21
-131.253
0
LINE
8
BLACK
6
CONTINUOUS
10
184.381
20
-130.853
11
183.981
21
-131.253
0
LINE
8
BLACK
6
CONTINUOUS
10
185.559
20
-130.992
11
185.959
21
-131.392
0
LINE
8
BLACK
6
CONTINUOUS
10
185.959
20
-130.992
11
185.559
21
-131.392
0
LINE
8
BLACK
6
CONTINUOUS
10
185.631
20
-129.952
11
186.031
21
-130.352
0
LINE
8
BLACK
6
CONTINUOUS
10
186.031
20
-129.952
11
185.631
21
-130.352
0
CIRCLE
8
BLACK
10
119.888
20
-130.048
40
0.35
0
CIRCLE
8
BLACK
10
124.968
20
-130.048
40
0.35
0
CIRCLE
8
BLACK
10
185.674
20
-115.418
40
0.35
0
CIRCLE
8
BLACK
10
185.674
20
-120.498
40
0.35
0
CIRCLE
8
BLACK
10
191.719
20
-108.712
40
0.35
0
CIRCLE
8
BLACK
10
196.799
20
-108.712
40
0.35
0
CIRCLE
8
BLACK
10
201.803
20
-108.712
40
0.35
0
CIRCLE
8
BLACK
10
201.828
20
-111.176
40
0.35
0
CIRCLE
8
BLACK
10
201.828
20
-113.69
40
0.35
0
CIRCLE
8
BLACK
10
201.854
20
-116.23
40
0.35
0
CIRCLE
8
BLACK
10
206.883
20
-108.712
40
0.35
0
CIRCLE
8
BLACK
10
206.908
20
-111.176
40
0.35
0
CIRCLE
8
BLACK
10
206.908
20
-113.69
40
0.35
0
CIRCLE
8
BLACK
10
206.934
20
-116.23
40
0.35
0
LINE
8
BLACK
6
CONTINUOUS
10
113.487
20
-129.673
11
113.487
21
-130.423
0
LINE
8
BLACK
6
CONTINUOUS
10
113.112
20
-130.048
11
113.862
21
-130.048
0
LINE
8
BLACK
6
CONTINUOUS
10
115.011
20
-129.673
11
115.011
21
-130.423
0
LINE
8
BLACK
6
CONTINUOUS
10
114.636
20
-130.048
11
115.386
21
-130.048
0
LINE
8
BLACK
6
CONTINUOUS
10
116.586
20
-129.673
11
116.586
21
-130.423
0
LINE
8
BLACK
6
CONTINUOUS
10
116.211
20
-130.048
11
116.961
21
-130.048
0
LINE
8
BLACK
6
CONTINUOUS
10
104.575
20
-105.388
11
104.575
21
-104.822
0
LINE
8
BLACK
6
CONTINUOUS
10
104.575
20
-104.822
11
104.01
21
-104.822
0
LINE
8
BLACK
6
CONTINUOUS
10
104.01
20
-104.822
11
104.01
21
-105.388
0
LINE
8
BLACK
6
CONTINUOUS
10
104.01
20
-105.388
11
104.575
21
-105.388
0
LINE
8
BLACK
6
CONTINUOUS
10
104.677
20
-85.3728
11
104.677
21
-84.8072
0
LINE
8
BLACK
6
CONTINUOUS
10
104.677
20
-84.8072
11
104.111
21
-84.8072
0
LINE
8
BLACK
6
CONTINUOUS
10
104.111
20
-84.8072
11
104.111
21
-85.3728
0
LINE
8
BLACK
6
CONTINUOUS
10
104.111
20
-85.3728
11
104.677
21
-85.3728
0
LINE
8
BLACK
6
CONTINUOUS
10
104.677
20
-100.613
11
104.677
21
-100.047
0
LINE
8
BLACK
6
CONTINUOUS
10
104.677
20
-100.047
11
104.111
21
-100.047
0
LINE
8
BLACK
6
CONTINUOUS
10
104.111
20
-100.047
11
104.111
21
-100.613
0
LINE
8
BLACK
6
CONTINUOUS
10
104.111
20
-100.613
11
104.677
21
-100.613
0
LINE
8
BLACK
6
CONTINUOUS
10
104.677
20
-108.746
11
104.677
21
-108.18
0
LINE
8
BLACK
6
CONTINUOUS
10
104.677
20
-108.18
11
104.111
21
-108.18
0
LINE
8
BLACK
6
CONTINUOUS
10
104.111
20
-108.18
11
104.111
21
-108.746
0
LINE
8
BLACK
6
CONTINUOUS
10
104.111
20
-108.746
11
104.677
21
-108.746
0
LINE
8
BLACK
6
CONTINUOUS
10
104.677
20
-123.986
11
104.677
21
-123.42
0
LINE
8
BLACK
6
CONTINUOUS
10
104.677
20
-123.42
11
104.111
21
-123.42
0
LINE
8
BLACK
6
CONTINUOUS
10
104.111
20
-123.42
11
104.111
21
-123.986
0
LINE
8
BLACK
6
CONTINUOUS
10
104.111
20
-123.986
11
104.677
21
-123.986
0
LINE
8
BLACK
6
CONTINUOUS
10
104.697
20
-82.3248
11
104.697
21
-81.7592
0
LINE
8
BLACK
6
CONTINUOUS
10
104.697
20
-81.7592
11
104.131
21
-81.7592
0
LINE
8
BLACK
6
CONTINUOUS
10
104.131
20
-81.7592
11
104.131
21
-82.3248
0
LINE
8
BLACK
6
CONTINUOUS
10
104.131
20
-82.3248
11
104.697
21
-82.3248
0
LINE
8
BLACK
6
CONTINUOUS
10
107.075
20
-105.388
11
107.075
21
-104.822
0
LINE
8
BLACK
6
CONTINUOUS
10
107.075
20
-104.822
11
106.51
21
-104.822
0
LINE
8
BLACK
6
CONTINUOUS
10
106.51
20
-104.822
11
106.51
21
-105.388
0
LINE
8
BLACK
6
CONTINUOUS
10
106.51
20
-105.388
11
107.075
21
-105.388
0
LINE
8
BLACK
6
CONTINUOUS
10
107.197
20
-82.3248
11
107.197
21
-81.7592
0
LINE
8
BLACK
6
CONTINUOUS
10
107.197
20
-81.7592
11
106.631
21
-81.7592
0
LINE
8
BLACK
6
CONTINUOUS
10
106.631
20
-81.7592
11
106.631
21
-82.3248
0
LINE
8
BLACK
6
CONTINUOUS
10
106.631
20
-82.3248
11
107.197
21
-82.3248
0
LINE
8
BLACK
6
CONTINUOUS
10
107.217
20
-85.3728
11
107.217
21
-84.8072
0
LINE
8
BLACK
6
CONTINUOUS
10
107.217
20
-84.8072
11
106.651
21
-84.8072
0
LINE
8
BLACK
6
CONTINUOUS
10
106.651
20
-84.8072
11
106.651
21
-85.3728
0
LINE
8
BLACK
6
CONTINUOUS
10
106.651
20
-85.3728
11
107.217
21
-85.3728
0
LINE
8
BLACK
6
CONTINUOUS
10
107.217
20
-100.613
11
107.217
21
-100.047
0
LINE
8
BLACK
6
CONTINUOUS
10
107.217
20
-100.047
11
106.651
21
-100.047
0
LINE
8
BLACK
6
CONTINUOUS
10
106.651
20
-100.047
11
106.651
21
-100.613
0
LINE
8
BLACK
6
CONTINUOUS
10
106.651
20
-100.613
11
107.217
21
-100.613
0
LINE
8
BLACK
6
CONTINUOUS
10
107.217
20
-108.746
11
107.217
21
-108.18
0
LINE
8
BLACK
6
CONTINUOUS
10
107.217
20
-108.18
11
106.651
21
-108.18
0
LINE
8
BLACK
6
CONTINUOUS
10
106.651
20
-108.18
11
106.651
21
-108.746
0
LINE
8
BLACK
6
CONTINUOUS
10
106.651
20
-108.746
11
107.217
21
-108.746
0
LINE
8
BLACK
6
CONTINUOUS
10
107.217
20
-123.986
11
107.217
21
-123.42
0
LINE
8
BLACK
6
CONTINUOUS
10
107.217
20
-123.42
11
106.651
21
-123.42
0
LINE
8
BLACK
6
CONTINUOUS
10
106.651
20
-123.42
11
106.651
21
-123.986
0
LINE
8
BLACK
6
CONTINUOUS
10
106.651
20
-123.986
11
107.217
21
-123.986
0
LINE
8
BLACK
6
CONTINUOUS
10
108.063
20
-66.2548
11
108.063
21
-65.6892
0
LINE
8
BLACK
6
CONTINUOUS
10
108.063
20
-65.6892
11
107.497
21
-65.6892
0
LINE
8
BLACK
6
CONTINUOUS
10
107.497
20
-65.6892
11
107.497
21
-66.2548
0
LINE
8
BLACK
6
CONTINUOUS
10
107.497
20
-66.2548
11
108.063
21
-66.2548
0
LINE
8
BLACK
6
CONTINUOUS
10
108.063
20
-73.8748
11
108.063
21
-73.3092
0
LINE
8
BLACK
6
CONTINUOUS
10
108.063
20
-73.3092
11
107.497
21
-73.3092
0
LINE
8
BLACK
6
CONTINUOUS
10
107.497
20
-73.3092
11
107.497
21
-73.8748
0
LINE
8
BLACK
6
CONTINUOUS
10
107.497
20
-73.8748
11
108.063
21
-73.8748
0
LINE
8
BLACK
6
CONTINUOUS
10
109.757
20
-85.3728
11
109.757
21
-84.8072
0
LINE
8
BLACK
6
CONTINUOUS
10
109.757
20
-84.8072
11
109.191
21
-84.8072
0
LINE
8
BLACK
6
CONTINUOUS
10
109.191
20
-84.8072
11
109.191
21
-85.3728
0
LINE
8
BLACK
6
CONTINUOUS
10
109.191
20
-85.3728
11
109.757
21
-85.3728
0
LINE
8
BLACK
6
CONTINUOUS
10
109.757
20
-100.613
11
109.757
21
-100.047
0
LINE
8
BLACK
6
CONTINUOUS
10
109.757
20
-100.047
11
109.191
21
-100.047
0
LINE
8
BLACK
6
CONTINUOUS
10
109.191
20
-100.047
11
109.191
21
-100.613
0
LINE
8
BLACK
6
CONTINUOUS
10
109.191
20
-100.613
11
109.757
21
-100.613
0
LINE
8
BLACK
6
CONTINUOUS
10
109.757
20
-108.746
11
109.757
21
-108.18
0
LINE
8
BLACK
6
CONTINUOUS
10
109.757
20
-108.18
11
109.191
21
-108.18
0
LINE
8
BLACK
6
CONTINUOUS
10
109.191
20
-108.18
11
109.191
21
-108.746
0
LINE
8
BLACK
6
CONTINUOUS
10
109.191
20
-108.746
11
109.757
21
-108.746
0
LINE
8
BLACK
6
CONTINUOUS
10
109.757
20
-123.986
11
109.757
21
-123.42
0
LINE
8
BLACK
6
CONTINUOUS
10
109.757
20
-123.42
11
109.191
21
-123.42
0
LINE
8
BLACK
6
CONTINUOUS
10
109.191
20
-123.42
11
109.191
21
-123.986
0
LINE
8
BLACK
6
CONTINUOUS
10
109.191
20
-123.986
11
109.757
21
-123.986
0
LINE
8
BLACK
6
CONTINUOUS
10
112.297
20
-85.3728
11
112.297
21
-84.8072
0
LINE
8
BLACK
6
CONTINUOUS
10
112.297
20
-84.8072
11
111.731
21
-84.8072
0
LINE
8
BLACK
6
CONTINUOUS
10
111.731
20
-84.8072
11
111.731
21
-85.3728
0
LINE
8
BLACK
6
CONTINUOUS
10
111.731
20
-85.3728
11
112.297
21
-85.3728
0
LINE
8
BLACK
6
CONTINUOUS
10
112.297
20
-100.613
11
112.297
21
-100.047
0
LINE
8
BLACK
6
CONTINUOUS
10
112.297
20
-100.047
11
111.731
21
-100.047
0
LINE
8
BLACK
6
CONTINUOUS
10
111.731
20
-100.047
11
111.731
21
-100.613
0
LINE
8
BLACK
6
CONTINUOUS
10
111.731
20
-100.613
11
112.297
21
-100.613
0
LINE
8
BLACK
6
CONTINUOUS
10
112.297
20
-108.746
11
112.297
21
-108.18
0
LINE
8
BLACK
6
CONTINUOUS
10
112.297
20
-108.18
11
111.731
21
-108.18
0
LINE
8
BLACK
6
CONTINUOUS
10
111.731
20
-108.18
11
111.731
21
-108.746
0
LINE
8
BLACK
6
CONTINUOUS
10
111.731
20
-108.746
11
112.297
21
-108.746
0
LINE
8
BLACK
6
CONTINUOUS
10
112.297
20
-123.986
11
112.297
21
-123.42
0
LINE
8
BLACK
6
CONTINUOUS
10
112.297
20
-123.42
11
111.731
21
-123.42
0
LINE
8
BLACK
6
CONTINUOUS
10
111.731
20
-123.42
11
111.731
21
-123.986
0
LINE
8
BLACK
6
CONTINUOUS
10
111.731
20
-123.986
11
112.297
21
-123.986
0
LINE
8
BLACK
6
CONTINUOUS
10
113.18
20
-77.9052
11
113.18
21
-77.3396
0
LINE
8
BLACK
6
CONTINUOUS
10
113.18
20
-77.3396
11
112.615
21
-77.3396
0
LINE
8
BLACK
6
CONTINUOUS
10
112.615
20
-77.3396
11
112.615
21
-77.9052
0
LINE
8
BLACK
6
CONTINUOUS
10
112.615
20
-77.9052
11
113.18
21
-77.9052
0
LINE
8
BLACK
6
CONTINUOUS
10
114.837
20
-85.3728
11
114.837
21
-84.8072
0
LINE
8
BLACK
6
CONTINUOUS
10
114.837
20
-84.8072
11
114.271
21
-84.8072
0
LINE
8
BLACK
6
CONTINUOUS
10
114.271
20
-84.8072
11
114.271
21
-85.3728
0
LINE
8
BLACK
6
CONTINUOUS
10
114.271
20
-85.3728
11
114.837
21
-85.3728
0
LINE
8
BLACK
6
CONTINUOUS
10
114.837
20
-100.613
11
114.837
21
-100.047
0
LINE
8
BLACK
6
CONTINUOUS
10
114.837
20
-100.047
11
114.271
21
-100.047
0
LINE
8
BLACK
6
CONTINUOUS
10
114.271
20
-100.047
11
114.271
21
-100.613
0
LINE
8
BLACK
6
CONTINUOUS
10
114.271
20
-100.613
11
114.837
21
-100.613
0
LINE
8
BLACK
6
CONTINUOUS
10
114.837
20
-108.746
11
114.837
21
-108.18
0
LINE
8
BLACK
6
CONTINUOUS
10
114.837
20
-108.18
11
114.271
21
-108.18
0
LINE
8
BLACK
6
CONTINUOUS
10
114.271
20
-108.18
11
114.271
21
-108.746
0
LINE
8
BLACK
6
CONTINUOUS
10
114.271
20
-108.746
11
114.837
21
-108.746
0
LINE
8
BLACK
6
CONTINUOUS
10
114.837
20
-123.986
11
114.837
21
-123.42
0
LINE
8
BLACK
6
CONTINUOUS
10
114.837
20
-123.42
11
114.271
21
-123.42
0
LINE
8
BLACK
6
CONTINUOUS
10
114.271
20
-123.42
11
114.271
21
-123.986
0
LINE
8
BLACK
6
CONTINUOUS
10
114.271
20
-123.986
11
114.837
21
-123.986
0
LINE
8
BLACK
6
CONTINUOUS
10
115.68
20
-77.9052
11
115.68
21
-77.3396
0
LINE
8
BLACK
6
CONTINUOUS
10
115.68
20
-77.3396
11
115.115
21
-77.3396
0
LINE
8
BLACK
6
CONTINUOUS
10
115.115
20
-77.3396
11
115.115
21
-77.9052
0
LINE
8
BLACK
6
CONTINUOUS
10
115.115
20
-77.9052
11
115.68
21
-77.9052
0
LINE
8
BLACK
6
CONTINUOUS
10
115.683
20
-66.2548
11
115.683
21
-65.6892
0
LINE
8
BLACK
6
CONTINUOUS
10
115.683
20
-65.6892
11
115.117
21
-65.6892
0
LINE
8
BLACK
6
CONTINUOUS
10
115.117
20
-65.6892
11
115.117
21
-66.2548
0
LINE
8
BLACK
6
CONTINUOUS
10
115.117
20
-66.2548
11
115.683
21
-66.2548
0
LINE
8
BLACK
6
CONTINUOUS
10
115.683
20
-73.8748
11
115.683
21
-73.3092
0
LINE
8
BLACK
6
CONTINUOUS
10
115.683
20
-73.3092
11
115.117
21
-73.3092
0
LINE
8
BLACK
6
CONTINUOUS
10
115.117
20
-73.3092
11
115.117
21
-73.8748
0
LINE
8
BLACK
6
CONTINUOUS
10
115.117
20
-73.8748
11
115.683
21
-73.8748
0
LINE
8
BLACK
6
CONTINUOUS
10
117.377
20
-85.3728
11
117.377
21
-84.8072
0
LINE
8
BLACK
6
CONTINUOUS
10
117.377
20
-84.8072
11
116.811
21
-84.8072
0
LINE
8
BLACK
6
CONTINUOUS
10
116.811
20
-84.8072
11
116.811
21
-85.3728
0
LINE
8
BLACK
6
CONTINUOUS
10
116.811
20
-85.3728
11
117.377
21
-85.3728
0
LINE
8
BLACK
6
CONTINUOUS
10
117.377
20
-100.613
11
117.377
21
-100.047
0
LINE
8
BLACK
6
CONTINUOUS
10
117.377
20
-100.047
11
116.811
21
-100.047
0
LINE
8
BLACK
6
CONTINUOUS
10
116.811
20
-100.047
11
116.811
21
-100.613
0
LINE
8
BLACK
6
CONTINUOUS
10
116.811
20
-100.613
11
117.377
21
-100.613
0
LINE
8
BLACK
6
CONTINUOUS
10
117.377
20
-108.746
11
117.377
21
-108.18
0
LINE
8
BLACK
6
CONTINUOUS
10
117.377
20
-108.18
11
116.811
21
-108.18
0
LINE
8
BLACK
6
CONTINUOUS
10
116.811
20
-108.18
11
116.811
21
-108.746
0
LINE
8
BLACK
6
CONTINUOUS
10
116.811
20
-108.746
11
117.377
21
-108.746
0
LINE
8
BLACK
6
CONTINUOUS
10
117.377
20
-123.986
11
117.377
21
-123.42
0
LINE
8
BLACK
6
CONTINUOUS
10
117.377
20
-123.42
11
116.811
21
-123.42
0
LINE
8
BLACK
6
CONTINUOUS
10
116.811
20
-123.42
11
116.811
21
-123.986
0
LINE
8
BLACK
6
CONTINUOUS
10
116.811
20
-123.986
11
117.377
21
-123.986
0
LINE
8
BLACK
6
CONTINUOUS
10
119.917
20
-85.3728
11
119.917
21
-84.8072
0
LINE
8
BLACK
6
CONTINUOUS
10
119.917
20
-84.8072
11
119.351
21
-84.8072
0
LINE
8
BLACK
6
CONTINUOUS
10
119.351
20
-84.8072
11
119.351
21
-85.3728
0
LINE
8
BLACK
6
CONTINUOUS
10
119.351
20
-85.3728
11
119.917
21
-85.3728
0
LINE
8
BLACK
6
CONTINUOUS
10
119.917
20
-100.613
11
119.917
21
-100.047
0
LINE
8
BLACK
6
CONTINUOUS
10
119.917
20
-100.047
11
119.351
21
-100.047
0
LINE
8
BLACK
6
CONTINUOUS
10
119.351
20
-100.047
11
119.351
21
-100.613
0
LINE
8
BLACK
6
CONTINUOUS
10
119.351
20
-100.613
11
119.917
21
-100.613
0
LINE
8
BLACK
6
CONTINUOUS
10
119.917
20
-108.746
11
119.917
21
-108.18
0
LINE
8
BLACK
6
CONTINUOUS
10
119.917
20
-108.18
11
119.351
21
-108.18
0
LINE
8
BLACK
6
CONTINUOUS
10
119.351
20
-108.18
11
119.351
21
-108.746
0
LINE
8
BLACK
6
CONTINUOUS
10
119.351
20
-108.746
11
119.917
21
-108.746
0
LINE
8
BLACK
6
CONTINUOUS
10
119.917
20
-123.986
11
119.917
21
-123.42
0
LINE
8
BLACK
6
CONTINUOUS
10
119.917
20
-123.42
11
119.351
21
-123.42
0
LINE
8
BLACK
6
CONTINUOUS
10
119.351
20
-123.42
11
119.351
21
-123.986
0
LINE
8
BLACK
6
CONTINUOUS
10
119.351
20
-123.986
11
119.917
21
-123.986
0
LINE
8
BLACK
6
CONTINUOUS
10
122.457
20
-85.3728
11
122.457
21
-84.8072
0
LINE
8
BLACK
6
CONTINUOUS
10
122.457
20
-84.8072
11
121.891
21
-84.8072
0
LINE
8
BLACK
6
CONTINUOUS
10
121.891
20
-84.8072
11
121.891
21
-85.3728
0
LINE
8
BLACK
6
CONTINUOUS
10
121.891
20
-85.3728
11
122.457
21
-85.3728
0
LINE
8
BLACK
6
CONTINUOUS
10
122.457
20
-100.613
11
122.457
21
-100.047
0
LINE
8
BLACK
6
CONTINUOUS
10
122.457
20
-100.047
11
121.891
21
-100.047
0
LINE
8
BLACK
6
CONTINUOUS
10
121.891
20
-100.047
11
121.891
21
-100.613
0
LINE
8
BLACK
6
CONTINUOUS
10
121.891
20
-100.613
11
122.457
21
-100.613
0
LINE
8
BLACK
6
CONTINUOUS
10
122.457
20
-108.746
11
122.457
21
-108.18
0
LINE
8
BLACK
6
CONTINUOUS
10
122.457
20
-108.18
11
121.891
21
-108.18
0
LINE
8
BLACK
6
CONTINUOUS
10
121.891
20
-108.18
11
121.891
21
-108.746
0
LINE
8
BLACK
6
CONTINUOUS
10
121.891
20
-108.746
11
122.457
21
-108.746
0
LINE
8
BLACK
6
CONTINUOUS
10
122.457
20
-123.986
11
122.457
21
-123.42
0
LINE
8
BLACK
6
CONTINUOUS
10
122.457
20
-123.42
11
121.891
21
-123.42
0
LINE
8
BLACK
6
CONTINUOUS
10
121.891
20
-123.42
11
121.891
21
-123.986
0
LINE
8
BLACK
6
CONTINUOUS
10
121.891
20
-123.986
11
122.457
21
-123.986
0
LINE
8
BLACK
6
CONTINUOUS
10
123.752
20
-68.304
11
123.752
21
-67.7384
0
LINE
8
BLACK
6
CONTINUOUS
10
123.752
20
-67.7384
11
123.187
21
-67.7384
0
LINE
8
BLACK
6
CONTINUOUS
10
123.187
20
-67.7384
11
123.187
21
-68.304
0
LINE
8
BLACK
6
CONTINUOUS
10
123.187
20
-68.304
11
123.752
21
-68.304
0
LINE
8
BLACK
6
CONTINUOUS
10
123.752
20
-70.804
11
123.752
21
-70.2384
0
LINE
8
BLACK
6
CONTINUOUS
10
123.752
20
-70.2384
11
123.187
21
-70.2384
0
LINE
8
BLACK
6
CONTINUOUS
10
123.187
20
-70.2384
11
123.187
21
-70.804
0
LINE
8
BLACK
6
CONTINUOUS
10
123.187
20
-70.804
11
123.752
21
-70.804
0
LINE
8
BLACK
6
CONTINUOUS
10
124.997
20
-85.3728
11
124.997
21
-84.8072
0
LINE
8
BLACK
6
CONTINUOUS
10
124.997
20
-84.8072
11
124.431
21
-84.8072
0
LINE
8
BLACK
6
CONTINUOUS
10
124.431
20
-84.8072
11
124.431
21
-85.3728
0
LINE
8
BLACK
6
CONTINUOUS
10
124.431
20
-85.3728
11
124.997
21
-85.3728
0
LINE
8
BLACK
6
CONTINUOUS
10
124.997
20
-100.613
11
124.997
21
-100.047
0
LINE
8
BLACK
6
CONTINUOUS
10
124.997
20
-100.047
11
124.431
21
-100.047
0
LINE
8
BLACK
6
CONTINUOUS
10
124.431
20
-100.047
11
124.431
21
-100.613
0
LINE
8
BLACK
6
CONTINUOUS
10
124.431
20
-100.613
11
124.997
21
-100.613
0
LINE
8
BLACK
6
CONTINUOUS
10
124.997
20
-108.746
11
124.997
21
-108.18
0
LINE
8
BLACK
6
CONTINUOUS
10
124.997
20
-108.18
11
124.431
21
-108.18
0
LINE
8
BLACK
6
CONTINUOUS
10
124.431
20
-108.18
11
124.431
21
-108.746
0
LINE
8
BLACK
6
CONTINUOUS
10
124.431
20
-108.746
11
124.997
21
-108.746
0
LINE
8
BLACK
6
CONTINUOUS
10
124.997
20
-123.986
11
124.997
21
-123.42
0
LINE
8
BLACK
6
CONTINUOUS
10
124.997
20
-123.42
11
124.431
21
-123.42
0
LINE
8
BLACK
6
CONTINUOUS
10
124.431
20
-123.42
11
124.431
21
-123.986
0
LINE
8
BLACK
6
CONTINUOUS
10
124.431
20
-123.986
11
124.997
21
-123.986
0
LINE
8
BLACK
6
CONTINUOUS
10
127.029
20
-66.0688
11
127.029
21
-65.5032
0
LINE
8
BLACK
6
CONTINUOUS
10
127.029
20
-65.5032
11
126.463
21
-65.5032
0
LINE
8
BLACK
6
CONTINUOUS
10
126.463
20
-65.5032
11
126.463
21
-66.0688
0
LINE
8
BLACK
6
CONTINUOUS
10
126.463
20
-66.0688
11
127.029
21
-66.0688
0
LINE
8
BLACK
6
CONTINUOUS
10
127.029
20
-73.6888
11
127.029
21
-73.1232
0
LINE
8
BLACK
6
CONTINUOUS
10
127.029
20
-73.1232
11
126.463
21
-73.1232
0
LINE
8
BLACK
6
CONTINUOUS
10
126.463
20
-73.1232
11
126.463
21
-73.6888
0
LINE
8
BLACK
6
CONTINUOUS
10
126.463
20
-73.6888
11
127.029
21
-73.6888
0
LINE
8
BLACK
6
CONTINUOUS
10
127.537
20
-85.3728
11
127.537
21
-84.8072
0
LINE
8
BLACK
6
CONTINUOUS
10
127.537
20
-84.8072
11
126.971
21
-84.8072
0
LINE
8
BLACK
6
CONTINUOUS
10
126.971
20
-84.8072
11
126.971
21
-85.3728
0
LINE
8
BLACK
6
CONTINUOUS
10
126.971
20
-85.3728
11
127.537
21
-85.3728
0
LINE
8
BLACK
6
CONTINUOUS
10
127.537
20
-100.613
11
127.537
21
-100.047
0
LINE
8
BLACK
6
CONTINUOUS
10
127.537
20
-100.047
11
126.971
21
-100.047
0
LINE
8
BLACK
6
CONTINUOUS
10
126.971
20
-100.047
11
126.971
21
-100.613
0
LINE
8
BLACK
6
CONTINUOUS
10
126.971
20
-100.613
11
127.537
21
-100.613
0
LINE
8
BLACK
6
CONTINUOUS
10
127.537
20
-108.746
11
127.537
21
-108.18
0
LINE
8
BLACK
6
CONTINUOUS
10
127.537
20
-108.18
11
126.971
21
-108.18
0
LINE
8
BLACK
6
CONTINUOUS
10
126.971
20
-108.18
11
126.971
21
-108.746
0
LINE
8
BLACK
6
CONTINUOUS
10
126.971
20
-108.746
11
127.537
21
-108.746
0
LINE
8
BLACK
6
CONTINUOUS
10
127.537
20
-123.986
11
127.537
21
-123.42
0
LINE
8
BLACK
6
CONTINUOUS
10
127.537
20
-123.42
11
126.971
21
-123.42
0
LINE
8
BLACK
6
CONTINUOUS
10
126.971
20
-123.42
11
126.971
21
-123.986
0
LINE
8
BLACK
6
CONTINUOUS
10
126.971
20
-123.986
11
127.537
21
-123.986
0
LINE
8
BLACK
6
CONTINUOUS
10
129.569
20
-66.0688
11
129.569
21
-65.5032
0
LINE
8
BLACK
6
CONTINUOUS
10
129.569
20
-65.5032
11
129.003
21
-65.5032
0
LINE
8
BLACK
6
CONTINUOUS
10
129.003
20
-65.5032
11
129.003
21
-66.0688
0
LINE
8
BLACK
6
CONTINUOUS
10
129.003
20
-66.0688
11
129.569
21
-66.0688
0
LINE
8
BLACK
6
CONTINUOUS
10
129.569
20
-73.6888
11
129.569
21
-73.1232
0
LINE
8
BLACK
6
CONTINUOUS
10
129.569
20
-73.1232
11
129.003
21
-73.1232
0
LINE
8
BLACK
6
CONTINUOUS
10
129.003
20
-73.1232
11
129.003
21
-73.6888
0
LINE
8
BLACK
6
CONTINUOUS
10
129.003
20
-73.6888
11
129.569
21
-73.6888
0
LINE
8
BLACK
6
CONTINUOUS
10
130.077
20
-85.3728
11
130.077
21
-84.8072
0
LINE
8
BLACK
6
CONTINUOUS
10
130.077
20
-84.8072
11
129.511
21
-84.8072
0
LINE
8
BLACK
6
CONTINUOUS
10
129.511
20
-84.8072
11
129.511
21
-85.3728
0
LINE
8
BLACK
6
CONTINUOUS
10
129.511
20
-85.3728
11
130.077
21
-85.3728
0
LINE
8
BLACK
6
CONTINUOUS
10
130.077
20
-100.613
11
130.077
21
-100.047
0
LINE
8
BLACK
6
CONTINUOUS
10
130.077
20
-100.047
11
129.511
21
-100.047
0
LINE
8
BLACK
6
CONTINUOUS
10
129.511
20
-100.047
11
129.511
21
-100.613
0
LINE
8
BLACK
6
CONTINUOUS
10
129.511
20
-100.613
11
130.077
21
-100.613
0
LINE
8
BLACK
6
CONTINUOUS
10
130.077
20
-108.746
11
130.077
21
-108.18
0
LINE
8
BLACK
6
CONTINUOUS
10
130.077
20
-108.18
11
129.511
21
-108.18
0
LINE
8
BLACK
6
CONTINUOUS
10
129.511
20
-108.18
11
129.511
21
-108.746
0
LINE
8
BLACK
6
CONTINUOUS
10
129.511
20
-108.746
11
130.077
21
-108.746
0
LINE
8
BLACK
6
CONTINUOUS
10
130.077
20
-123.986
11
130.077
21
-123.42
0
LINE
8
BLACK
6
CONTINUOUS
10
130.077
20
-123.42
11
129.511
21
-123.42
0
LINE
8
BLACK
6
CONTINUOUS
10
129.511
20
-123.42
11
129.511
21
-123.986
0
LINE
8
BLACK
6
CONTINUOUS
10
129.511
20
-123.986
11
130.077
21
-123.986
0
LINE
8
BLACK
6
CONTINUOUS
10
132.109
20
-66.0688
11
132.109
21
-65.5032
0
LINE
8
BLACK
6
CONTINUOUS
10
132.109
20
-65.5032
11
131.543
21
-65.5032
0
LINE
8
BLACK
6
CONTINUOUS
10
131.543
20
-65.5032
11
131.543
21
-66.0688
0
LINE
8
BLACK
6
CONTINUOUS
10
131.543
20
-66.0688
11
132.109
21
-66.0688
0
LINE
8
BLACK
6
CONTINUOUS
10
132.109
20
-73.6888
11
132.109
21
-73.1232
0
LINE
8
BLACK
6
CONTINUOUS
10
132.109
20
-73.1232
11
131.543
21
-73.1232
0
LINE
8
BLACK
6
CONTINUOUS
10
131.543
20
-73.1232
11
131.543
21
-73.6888
0
LINE
8
BLACK
6
CONTINUOUS
10
131.543
20
-73.6888
11
132.109
21
-73.6888
0
LINE
8
BLACK
6
CONTINUOUS
10
132.617
20
-85.3728
11
132.617
21
-84.8072
0
LINE
8
BLACK
6
CONTINUOUS
10
132.617
20
-84.8072
11
132.051
21
-84.8072
0
LINE
8
BLACK
6
CONTINUOUS
10
132.051
20
-84.8072
11
132.051
21
-85.3728
0
LINE
8
BLACK
6
CONTINUOUS
10
132.051
20
-85.3728
11
132.617
21
-85.3728
0
LINE
8
BLACK
6
CONTINUOUS
10
132.617
20
-100.613
11
132.617
21
-100.047
0
LINE
8
BLACK
6
CONTINUOUS
10
132.617
20
-100.047
11
132.051
21
-100.047
0
LINE
8
BLACK
6
CONTINUOUS
10
132.051
20
-100.047
11
132.051
21
-100.613
0
LINE
8
BLACK
6
CONTINUOUS
10
132.051
20
-100.613
11
132.617
21
-100.613
0
LINE
8
BLACK
6
CONTINUOUS
10
132.617
20
-108.746
11
132.617
21
-108.18
0
LINE
8
BLACK
6
CONTINUOUS
10
132.617
20
-108.18
11
132.051
21
-108.18
0
LINE
8
BLACK
6
CONTINUOUS
10
132.051
20
-108.18
11
132.051
21
-108.746
0
LINE
8
BLACK
6
CONTINUOUS
10
132.051
20
-108.746
11
132.617
21
-108.746
0
LINE
8
BLACK
6
CONTINUOUS
10
132.617
20
-123.986
11
132.617
21
-123.42
0
LINE
8
BLACK
6
CONTINUOUS
10
132.617
20
-123.42
11
132.051
21
-123.42
0
LINE
8
BLACK
6
CONTINUOUS
10
132.051
20
-123.42
11
132.051
21
-123.986
0
LINE
8
BLACK
6
CONTINUOUS
10
132.051
20
-123.986
11
132.617
21
-123.986
0
LINE
8
BLACK
6
CONTINUOUS
10
134.649
20
-66.0688
11
134.649
21
-65.5032
0
LINE
8
BLACK
6
CONTINUOUS
10
134.649
20
-65.5032
11
134.083
21
-65.5032
0
LINE
8
BLACK
6
CONTINUOUS
10
134.083
20
-65.5032
11
134.083
21
-66.0688
0
LINE
8
BLACK
6
CONTINUOUS
10
134.083
20
-66.0688
11
134.649
21
-66.0688
0
LINE
8
BLACK
6
CONTINUOUS
10
134.649
20
-73.6888
11
134.649
21
-73.1232
0
LINE
8
BLACK
6
CONTINUOUS
10
134.649
20
-73.1232
11
134.083
21
-73.1232
0
LINE
8
BLACK
6
CONTINUOUS
10
134.083
20
-73.1232
11
134.083
21
-73.6888
0
LINE
8
BLACK
6
CONTINUOUS
10
134.083
20
-73.6888
11
134.649
21
-73.6888
0
LINE
8
BLACK
6
CONTINUOUS
10
135.157
20
-85.3728
11
135.157
21
-84.8072
0
LINE
8
BLACK
6
CONTINUOUS
10
135.157
20
-84.8072
11
134.591
21
-84.8072
0
LINE
8
BLACK
6
CONTINUOUS
10
134.591
20
-84.8072
11
134.591
21
-85.3728
0
LINE
8
BLACK
6
CONTINUOUS
10
134.591
20
-85.3728
11
135.157
21
-85.3728
0
LINE
8
BLACK
6
CONTINUOUS
10
135.157
20
-100.613
11
135.157
21
-100.047
0
LINE
8
BLACK
6
CONTINUOUS
10
135.157
20
-100.047
11
134.591
21
-100.047
0
LINE
8
BLACK
6
CONTINUOUS
10
134.591
20
-100.047
11
134.591
21
-100.613
0
LINE
8
BLACK
6
CONTINUOUS
10
134.591
20
-100.613
11
135.157
21
-100.613
0
LINE
8
BLACK
6
CONTINUOUS
10
135.157
20
-108.746
11
135.157
21
-108.18
0
LINE
8
BLACK
6
CONTINUOUS
10
135.157
20
-108.18
11
134.591
21
-108.18
0
LINE
8
BLACK
6
CONTINUOUS
10
134.591
20
-108.18
11
134.591
21
-108.746
0
LINE
8
BLACK
6
CONTINUOUS
10
134.591
20
-108.746
11
135.157
21
-108.746
0
LINE
8
BLACK
6
CONTINUOUS
10
135.157
20
-123.986
11
135.157
21
-123.42
0
LINE
8
BLACK
6
CONTINUOUS
10
135.157
20
-123.42
11
134.591
21
-123.42
0
LINE
8
BLACK
6
CONTINUOUS
10
134.591
20
-123.42
11
134.591
21
-123.986
0
LINE
8
BLACK
6
CONTINUOUS
10
134.591
20
-123.986
11
135.157
21
-123.986
0
LINE
8
BLACK
6
CONTINUOUS
10
137.189
20
-66.0688
11
137.189
21
-65.5032
0
LINE
8
BLACK
6
CONTINUOUS
10
137.189
20
-65.5032
11
136.623
21
-65.5032
0
LINE
8
BLACK
6
CONTINUOUS
10
136.623
20
-65.5032
11
136.623
21
-66.0688
0
LINE
8
BLACK
6
CONTINUOUS
10
136.623
20
-66.0688
11
137.189
21
-66.0688
0
LINE
8
BLACK
6
CONTINUOUS
10
137.189
20
-73.6888
11
137.189
21
-73.1232
0
LINE
8
BLACK
6
CONTINUOUS
10
137.189
20
-73.1232
11
136.623
21
-73.1232
0
LINE
8
BLACK
6
CONTINUOUS
10
136.623
20
-73.1232
11
136.623
21
-73.6888
0
LINE
8
BLACK
6
CONTINUOUS
10
136.623
20
-73.6888
11
137.189
21
-73.6888
0
LINE
8
BLACK
6
CONTINUOUS
10
137.697
20
-85.3728
11
137.697
21
-84.8072
0
LINE
8
BLACK
6
CONTINUOUS
10
137.697
20
-84.8072
11
137.131
21
-84.8072
0
LINE
8
BLACK
6
CONTINUOUS
10
137.131
20
-84.8072
11
137.131
21
-85.3728
0
LINE
8
BLACK
6
CONTINUOUS
10
137.131
20
-85.3728
11
137.697
21
-85.3728
0
LINE
8
BLACK
6
CONTINUOUS
10
137.697
20
-100.613
11
137.697
21
-100.047
0
LINE
8
BLACK
6
CONTINUOUS
10
137.697
20
-100.047
11
137.131
21
-100.047
0
LINE
8
BLACK
6
CONTINUOUS
10
137.131
20
-100.047
11
137.131
21
-100.613
0
LINE
8
BLACK
6
CONTINUOUS
10
137.131
20
-100.613
11
137.697
21
-100.613
0
LINE
8
BLACK
6
CONTINUOUS
10
137.697
20
-108.746
11
137.697
21
-108.18
0
LINE
8
BLACK
6
CONTINUOUS
10
137.697
20
-108.18
11
137.131
21
-108.18
0
LINE
8
BLACK
6
CONTINUOUS
10
137.131
20
-108.18
11
137.131
21
-108.746
0
LINE
8
BLACK
6
CONTINUOUS
10
137.131
20
-108.746
11
137.697
21
-108.746
0
LINE
8
BLACK
6
CONTINUOUS
10
137.697
20
-123.986
11
137.697
21
-123.42
0
LINE
8
BLACK
6
CONTINUOUS
10
137.697
20
-123.42
11
137.131
21
-123.42
0
LINE
8
BLACK
6
CONTINUOUS
10
137.131
20
-123.42
11
137.131
21
-123.986
0
LINE
8
BLACK
6
CONTINUOUS
10
137.131
20
-123.986
11
137.697
21
-123.986
0
LINE
8
BLACK
6
CONTINUOUS
10
138.713
20
-62.0048
11
138.713
21
-61.4392
0
LINE
8
BLACK
6
CONTINUOUS
10
138.713
20
-61.4392
11
138.147
21
-61.4392
0
LINE
8
BLACK
6
CONTINUOUS
10
138.147
20
-61.4392
11
138.147
21
-62.0048
0
LINE
8
BLACK
6
CONTINUOUS
10
138.147
20
-62.0048
11
138.713
21
-62.0048
0
LINE
8
BLACK
6
CONTINUOUS
10
139.729
20
-66.0688
11
139.729
21
-65.5032
0
LINE
8
BLACK
6
CONTINUOUS
10
139.729
20
-65.5032
11
139.163
21
-65.5032
0
LINE
8
BLACK
6
CONTINUOUS
10
139.163
20
-65.5032
11
139.163
21
-66.0688
0
LINE
8
BLACK
6
CONTINUOUS
10
139.163
20
-66.0688
11
139.729
21
-66.0688
0
LINE
8
BLACK
6
CONTINUOUS
10
139.729
20
-73.6888
11
139.729
21
-73.1232
0
LINE
8
BLACK
6
CONTINUOUS
10
139.729
20
-73.1232
11
139.163
21
-73.1232
0
LINE
8
BLACK
6
CONTINUOUS
10
139.163
20
-73.1232
11
139.163
21
-73.6888
0
LINE
8
BLACK
6
CONTINUOUS
10
139.163
20
-73.6888
11
139.729
21
-73.6888
0
LINE
8
BLACK
6
CONTINUOUS
10
140.237
20
-85.3728
11
140.237
21
-84.8072
0
LINE
8
BLACK
6
CONTINUOUS
10
140.237
20
-84.8072
11
139.671
21
-84.8072
0
LINE
8
BLACK
6
CONTINUOUS
10
139.671
20
-84.8072
11
139.671
21
-85.3728
0
LINE
8
BLACK
6
CONTINUOUS
10
139.671
20
-85.3728
11
140.237
21
-85.3728
0
LINE
8
BLACK
6
CONTINUOUS
10
140.237
20
-100.613
11
140.237
21
-100.047
0
LINE
8
BLACK
6
CONTINUOUS
10
140.237
20
-100.047
11
139.671
21
-100.047
0
LINE
8
BLACK
6
CONTINUOUS
10
139.671
20
-100.047
11
139.671
21
-100.613
0
LINE
8
BLACK
6
CONTINUOUS
10
139.671
20
-100.613
11
140.237
21
-100.613
0
LINE
8
BLACK
6
CONTINUOUS
10
140.237
20
-108.746
11
140.237
21
-108.18
0
LINE
8
BLACK
6
CONTINUOUS
10
140.237
20
-108.18
11
139.671
21
-108.18
0
LINE
8
BLACK
6
CONTINUOUS
10
139.671
20
-108.18
11
139.671
21
-108.746
0
LINE
8
BLACK
6
CONTINUOUS
10
139.671
20
-108.746
11
140.237
21
-108.746
0
LINE
8
BLACK
6
CONTINUOUS
10
140.237
20
-123.986
11
140.237
21
-123.42
0
LINE
8
BLACK
6
CONTINUOUS
10
140.237
20
-123.42
11
139.671
21
-123.42
0
LINE
8
BLACK
6
CONTINUOUS
10
139.671
20
-123.42
11
139.671
21
-123.986
0
LINE
8
BLACK
6
CONTINUOUS
10
139.671
20
-123.986
11
140.237
21
-123.986
0
LINE
8
BLACK
6
CONTINUOUS
10
141.253
20
-62.0048
11
141.253
21
-61.4392
0
LINE
8
BLACK
6
CONTINUOUS
10
141.253
20
-61.4392
11
140.687
21
-61.4392
0
LINE
8
BLACK
6
CONTINUOUS
10
140.687
20
-61.4392
11
140.687
21
-62.0048
0
LINE
8
BLACK
6
CONTINUOUS
10
140.687
20
-62.0048
11
141.253
21
-62.0048
0
LINE
8
BLACK
6
CONTINUOUS
10
142.269
20
-66.0688
11
142.269
21
-65.5032
0
LINE
8
BLACK
6
CONTINUOUS
10
142.269
20
-65.5032
11
141.703
21
-65.5032
0
LINE
8
BLACK
6
CONTINUOUS
10
141.703
20
-65.5032
11
141.703
21
-66.0688
0
LINE
8
BLACK
6
CONTINUOUS
10
141.703
20
-66.0688
11
142.269
21
-66.0688
0
LINE
8
BLACK
6
CONTINUOUS
10
142.269
20
-73.6888
11
142.269
21
-73.1232
0
LINE
8
BLACK
6
CONTINUOUS
10
142.269
20
-73.1232
11
141.703
21
-73.1232
0
LINE
8
BLACK
6
CONTINUOUS
10
141.703
20
-73.1232
11
141.703
21
-73.6888
0
LINE
8
BLACK
6
CONTINUOUS
10
141.703
20
-73.6888
11
142.269
21
-73.6888
0
LINE
8
BLACK
6
CONTINUOUS
10
142.523
20
-104.677
11
142.523
21
-104.111
0
LINE
8
BLACK
6
CONTINUOUS
10
142.523
20
-104.111
11
141.957
21
-104.111
0
LINE
8
BLACK
6
CONTINUOUS
10
141.957
20
-104.111
11
141.957
21
-104.677
0
LINE
8
BLACK
6
CONTINUOUS
10
141.957
20
-104.677
11
142.523
21
-104.677
0
LINE
8
BLACK
6
CONTINUOUS
10
142.777
20
-85.3728
11
142.777
21
-84.8072
0
LINE
8
BLACK
6
CONTINUOUS
10
142.777
20
-84.8072
11
142.211
21
-84.8072
0
LINE
8
BLACK
6
CONTINUOUS
10
142.211
20
-84.8072
11
142.211
21
-85.3728
0
LINE
8
BLACK
6
CONTINUOUS
10
142.211
20
-85.3728
11
142.777
21
-85.3728
0
LINE
8
BLACK
6
CONTINUOUS
10
142.777
20
-100.613
11
142.777
21
-100.047
0
LINE
8
BLACK
6
CONTINUOUS
10
142.777
20
-100.047
11
142.211
21
-100.047
0
LINE
8
BLACK
6
CONTINUOUS
10
142.211
20
-100.047
11
142.211
21
-100.613
0
LINE
8
BLACK
6
CONTINUOUS
10
142.211
20
-100.613
11
142.777
21
-100.613
0
LINE
8
BLACK
6
CONTINUOUS
10
142.777
20
-108.746
11
142.777
21
-108.18
0
LINE
8
BLACK
6
CONTINUOUS
10
142.777
20
-108.18
11
142.211
21
-108.18
0
LINE
8
BLACK
6
CONTINUOUS
10
142.211
20
-108.18
11
142.211
21
-108.746
0
LINE
8
BLACK
6
CONTINUOUS
10
142.211
20
-108.746
11
142.777
21
-108.746
0
LINE
8
BLACK
6
CONTINUOUS
10
142.777
20
-123.986
11
142.777
21
-123.42
0
LINE
8
BLACK
6
CONTINUOUS
10
142.777
20
-123.42
11
142.211
21
-123.42
0
LINE
8
BLACK
6
CONTINUOUS
10
142.211
20
-123.42
11
142.211
21
-123.986
0
LINE
8
BLACK
6
CONTINUOUS
10
142.211
20
-123.986
11
142.777
21
-123.986
0
LINE
8
BLACK
6
CONTINUOUS
10
143.793
20
-62.0048
11
143.793
21
-61.4392
0
LINE
8
BLACK
6
CONTINUOUS
10
143.793
20
-61.4392
11
143.227
21
-61.4392
0
LINE
8
BLACK
6
CONTINUOUS
10
143.227
20
-61.4392
11
143.227
21
-62.0048
0
LINE
8
BLACK
6
CONTINUOUS
10
143.227
20
-62.0048
11
143.793
21
-62.0048
0
LINE
8
BLACK
6
CONTINUOUS
10
145.023
20
-104.677
11
145.023
21
-104.111
0
LINE
8
BLACK
6
CONTINUOUS
10
145.023
20
-104.111
11
144.457
21
-104.111
0
LINE
8
BLACK
6
CONTINUOUS
10
144.457
20
-104.111
11
144.457
21
-104.677
0
LINE
8
BLACK
6
CONTINUOUS
10
144.457
20
-104.677
11
145.023
21
-104.677
0
LINE
8
BLACK
6
CONTINUOUS
10
146.333
20
-62.0048
11
146.333
21
-61.4392
0
LINE
8
BLACK
6
CONTINUOUS
10
146.333
20
-61.4392
11
145.767
21
-61.4392
0
LINE
8
BLACK
6
CONTINUOUS
10
145.767
20
-61.4392
11
145.767
21
-62.0048
0
LINE
8
BLACK
6
CONTINUOUS
10
145.767
20
-62.0048
11
146.333
21
-62.0048
0
LINE
8
BLACK
6
CONTINUOUS
10
148.375
20
-65.8198
11
148.375
21
-65.2542
0
LINE
8
BLACK
6
CONTINUOUS
10
148.375
20
-65.2542
11
147.809
21
-65.2542
0
LINE
8
BLACK
6
CONTINUOUS
10
147.809
20
-65.2542
11
147.809
21
-65.8198
0
LINE
8
BLACK
6
CONTINUOUS
10
147.809
20
-65.8198
11
148.375
21
-65.8198
0
LINE
8
BLACK
6
CONTINUOUS
10
148.375
20
-81.0598
11
148.375
21
-80.4942
0
LINE
8
BLACK
6
CONTINUOUS
10
148.375
20
-80.4942
11
147.809
21
-80.4942
0
LINE
8
BLACK
6
CONTINUOUS
10
147.809
20
-80.4942
11
147.809
21
-81.0598
0
LINE
8
BLACK
6
CONTINUOUS
10
147.809
20
-81.0598
11
148.375
21
-81.0598
0
LINE
8
BLACK
6
CONTINUOUS
10
148.873
20
-62.0048
11
148.873
21
-61.4392
0
LINE
8
BLACK
6
CONTINUOUS
10
148.873
20
-61.4392
11
148.307
21
-61.4392
0
LINE
8
BLACK
6
CONTINUOUS
10
148.307
20
-61.4392
11
148.307
21
-62.0048
0
LINE
8
BLACK
6
CONTINUOUS
10
148.307
20
-62.0048
11
148.873
21
-62.0048
0
LINE
8
BLACK
6
CONTINUOUS
10
150.143
20
-92.2308
11
150.143
21
-91.6652
0
LINE
8
BLACK
6
CONTINUOUS
10
150.143
20
-91.6652
11
149.577
21
-91.6652
0
LINE
8
BLACK
6
CONTINUOUS
10
149.577
20
-91.6652
11
149.577
21
-92.2308
0
LINE
8
BLACK
6
CONTINUOUS
10
149.577
20
-92.2308
11
150.143
21
-92.2308
0
LINE
8
BLACK
6
CONTINUOUS
10
150.143
20
-94.7708
11
150.143
21
-94.2052
0
LINE
8
BLACK
6
CONTINUOUS
10
150.143
20
-94.2052
11
149.577
21
-94.2052
0
LINE
8
BLACK
6
CONTINUOUS
10
149.577
20
-94.2052
11
149.577
21
-94.7708
0
LINE
8
BLACK
6
CONTINUOUS
10
149.577
20
-94.7708
11
150.143
21
-94.7708
0
LINE
8
BLACK
6
CONTINUOUS
10
150.143
20
-97.3108
11
150.143
21
-96.7452
0
LINE
8
BLACK
6
CONTINUOUS
10
150.143
20
-96.7452
11
149.577
21
-96.7452
0
LINE
8
BLACK
6
CONTINUOUS
10
149.577
20
-96.7452
11
149.577
21
-97.3108
0
LINE
8
BLACK
6
CONTINUOUS
10
149.577
20
-97.3108
11
150.143
21
-97.3108
0
LINE
8
BLACK
6
CONTINUOUS
10
150.143
20
-99.8508
11
150.143
21
-99.2852
0
LINE
8
BLACK
6
CONTINUOUS
10
150.143
20
-99.2852
11
149.577
21
-99.2852
0
LINE
8
BLACK
6
CONTINUOUS
10
149.577
20
-99.2852
11
149.577
21
-99.8508
0
LINE
8
BLACK
6
CONTINUOUS
10
149.577
20
-99.8508
11
150.143
21
-99.8508
0
LINE
8
BLACK
6
CONTINUOUS
10
150.143
20
-102.391
11
150.143
21
-101.825
0
LINE
8
BLACK
6
CONTINUOUS
10
150.143
20
-101.825
11
149.577
21
-101.825
0
LINE
8
BLACK
6
CONTINUOUS
10
149.577
20
-101.825
11
149.577
21
-102.391
0
LINE
8
BLACK
6
CONTINUOUS
10
149.577
20
-102.391
11
150.143
21
-102.391
0
LINE
8
BLACK
6
CONTINUOUS
10
150.143
20
-104.931
11
150.143
21
-104.365
0
LINE
8
BLACK
6
CONTINUOUS
10
150.143
20
-104.365
11
149.577
21
-104.365
0
LINE
8
BLACK
6
CONTINUOUS
10
149.577
20
-104.365
11
149.577
21
-104.931
0
LINE
8
BLACK
6
CONTINUOUS
10
149.577
20
-104.931
11
150.143
21
-104.931
0
LINE
8
BLACK
6
CONTINUOUS
10
150.143
20
-107.471
11
150.143
21
-106.905
0
LINE
8
BLACK
6
CONTINUOUS
10
150.143
20
-106.905
11
149.577
21
-106.905
0
LINE
8
BLACK
6
CONTINUOUS
10
149.577
20
-106.905
11
149.577
21
-107.471
0
LINE
8
BLACK
6
CONTINUOUS
10
149.577
20
-107.471
11
150.143
21
-107.471
0
LINE
8
BLACK
6
CONTINUOUS
10
150.143
20
-110.011
11
150.143
21
-109.445
0
LINE
8
BLACK
6
CONTINUOUS
10
150.143
20
-109.445
11
149.577
21
-109.445
0
LINE
8
BLACK
6
CONTINUOUS
10
149.577
20
-109.445
11
149.577
21
-110.011
0
LINE
8
BLACK
6
CONTINUOUS
10
149.577
20
-110.011
11
150.143
21
-110.011
0
LINE
8
BLACK
6
CONTINUOUS
10
150.143
20
-112.551
11
150.143
21
-111.985
0
LINE
8
BLACK
6
CONTINUOUS
10
150.143
20
-111.985
11
149.577
21
-111.985
0
LINE
8
BLACK
6
CONTINUOUS
10
149.577
20
-111.985
11
149.577
21
-112.551
0
LINE
8
BLACK
6
CONTINUOUS
10
149.577
20
-112.551
11
150.143
21
-112.551
0
LINE
8
BLACK
6
CONTINUOUS
10
150.143
20
-115.091
11
150.143
21
-114.525
0
LINE
8
BLACK
6
CONTINUOUS
10
150.143
20
-114.525
11
149.577
21
-114.525
0
LINE
8
BLACK
6
CONTINUOUS
10
149.577
20
-114.525
11
149.577
21
-115.091
0
LINE
8
BLACK
6
CONTINUOUS
10
149.577
20
-115.091
11
150.143
21
-115.091
0
LINE
8
BLACK
6
CONTINUOUS
10
150.143
20
-117.631
11
150.143
21
-117.065
0
LINE
8
BLACK
6
CONTINUOUS
10
150.143
20
-117.065
11
149.577
21
-117.065
0
LINE
8
BLACK
6
CONTINUOUS
10
149.577
20
-117.065
11
149.577
21
-117.631
0
LINE
8
BLACK
6
CONTINUOUS
10
149.577
20
-117.631
11
150.143
21
-117.631
0
LINE
8
BLACK
6
CONTINUOUS
10
150.915
20
-65.8198
11
150.915
21
-65.2542
0
LINE
8
BLACK
6
CONTINUOUS
10
150.915
20
-65.2542
11
150.349
21
-65.2542
0
LINE
8
BLACK
6
CONTINUOUS
10
150.349
20
-65.2542
11
150.349
21
-65.8198
0
LINE
8
BLACK
6
CONTINUOUS
10
150.349
20
-65.8198
11
150.915
21
-65.8198
0
LINE
8
BLACK
6
CONTINUOUS
10
150.915
20
-81.0598
11
150.915
21
-80.4942
0
LINE
8
BLACK
6
CONTINUOUS
10
150.915
20
-80.4942
11
150.349
21
-80.4942
0
LINE
8
BLACK
6
CONTINUOUS
10
150.349
20
-80.4942
11
150.349
21
-81.0598
0
LINE
8
BLACK
6
CONTINUOUS
10
150.349
20
-81.0598
11
150.915
21
-81.0598
0
LINE
8
BLACK
6
CONTINUOUS
10
151.413
20
-62.0048
11
151.413
21
-61.4392
0
LINE
8
BLACK
6
CONTINUOUS
10
151.413
20
-61.4392
11
150.847
21
-61.4392
0
LINE
8
BLACK
6
CONTINUOUS
10
150.847
20
-61.4392
11
150.847
21
-62.0048
0
LINE
8
BLACK
6
CONTINUOUS
10
150.847
20
-62.0048
11
151.413
21
-62.0048
0
LINE
8
BLACK
6
CONTINUOUS
10
152.215
20
-125.505
11
152.215
21
-124.939
0
LINE
8
BLACK
6
CONTINUOUS
10
152.215
20
-124.939
11
151.649
21
-124.939
0
LINE
8
BLACK
6
CONTINUOUS
10
151.649
20
-124.939
11
151.649
21
-125.505
0
LINE
8
BLACK
6
CONTINUOUS
10
151.649
20
-125.505
11
152.215
21
-125.505
0
LINE
8
BLACK
6
CONTINUOUS
10
152.683
20
-89.6908
11
152.683
21
-89.1252
0
LINE
8
BLACK
6
CONTINUOUS
10
152.683
20
-89.1252
11
152.117
21
-89.1252
0
LINE
8
BLACK
6
CONTINUOUS
10
152.117
20
-89.1252
11
152.117
21
-89.6908
0
LINE
8
BLACK
6
CONTINUOUS
10
152.117
20
-89.6908
11
152.683
21
-89.6908
0
LINE
8
BLACK
6
CONTINUOUS
10
152.683
20
-92.2308
11
152.683
21
-91.6652
0
LINE
8
BLACK
6
CONTINUOUS
10
152.683
20
-91.6652
11
152.117
21
-91.6652
0
LINE
8
BLACK
6
CONTINUOUS
10
152.117
20
-91.6652
11
152.117
21
-92.2308
0
LINE
8
BLACK
6
CONTINUOUS
10
152.117
20
-92.2308
11
152.683
21
-92.2308
0
LINE
8
BLACK
6
CONTINUOUS
10
152.683
20
-94.7708
11
152.683
21
-94.2052
0
LINE
8
BLACK
6
CONTINUOUS
10
152.683
20
-94.2052
11
152.117
21
-94.2052
0
LINE
8
BLACK
6
CONTINUOUS
10
152.117
20
-94.2052
11
152.117
21
-94.7708
0
LINE
8
BLACK
6
CONTINUOUS
10
152.117
20
-94.7708
11
152.683
21
-94.7708
0
LINE
8
BLACK
6
CONTINUOUS
10
152.683
20
-97.3108
11
152.683
21
-96.7452
0
LINE
8
BLACK
6
CONTINUOUS
10
152.683
20
-96.7452
11
152.117
21
-96.7452
0
LINE
8
BLACK
6
CONTINUOUS
10
152.117
20
-96.7452
11
152.117
21
-97.3108
0
LINE
8
BLACK
6
CONTINUOUS
10
152.117
20
-97.3108
11
152.683
21
-97.3108
0
LINE
8
BLACK
6
CONTINUOUS
10
152.683
20
-99.8508
11
152.683
21
-99.2852
0
LINE
8
BLACK
6
CONTINUOUS
10
152.683
20
-99.2852
11
152.117
21
-99.2852
0
LINE
8
BLACK
6
CONTINUOUS
10
152.117
20
-99.2852
11
152.117
21
-99.8508
0
LINE
8
BLACK
6
CONTINUOUS
10
152.117
20
-99.8508
11
152.683
21
-99.8508
0
LINE
8
BLACK
6
CONTINUOUS
10
152.683
20
-102.391
11
152.683
21
-101.825
0
LINE
8
BLACK
6
CONTINUOUS
10
152.683
20
-101.825
11
152.117
21
-101.825
0
LINE
8
BLACK
6
CONTINUOUS
10
152.117
20
-101.825
11
152.117
21
-102.391
0
LINE
8
BLACK
6
CONTINUOUS
10
152.117
20
-102.391
11
152.683
21
-102.391
0
LINE
8
BLACK
6
CONTINUOUS
10
152.683
20
-104.931
11
152.683
21
-104.365
0
LINE
8
BLACK
6
CONTINUOUS
10
152.683
20
-104.365
11
152.117
21
-104.365
0
LINE
8
BLACK
6
CONTINUOUS
10
152.117
20
-104.365
11
152.117
21
-104.931
0
LINE
8
BLACK
6
CONTINUOUS
10
152.117
20
-104.931
11
152.683
21
-104.931
0
LINE
8
BLACK
6
CONTINUOUS
10
152.683
20
-107.471
11
152.683
21
-106.905
0
LINE
8
BLACK
6
CONTINUOUS
10
152.683
20
-106.905
11
152.117
21
-106.905
0
LINE
8
BLACK
6
CONTINUOUS
10
152.117
20
-106.905
11
152.117
21
-107.471
0
LINE
8
BLACK
6
CONTINUOUS
10
152.117
20
-107.471
11
152.683
21
-107.471
0
LINE
8
BLACK
6
CONTINUOUS
10
152.683
20
-110.011
11
152.683
21
-109.445
0
LINE
8
BLACK
6
CONTINUOUS
10
152.683
20
-109.445
11
152.117
21
-109.445
0
LINE
8
BLACK
6
CONTINUOUS
10
152.117
20
-109.445
11
152.117
21
-110.011
0
LINE
8
BLACK
6
CONTINUOUS
10
152.117
20
-110.011
11
152.683
21
-110.011
0
LINE
8
BLACK
6
CONTINUOUS
10
152.683
20
-112.551
11
152.683
21
-111.985
0
LINE
8
BLACK
6
CONTINUOUS
10
152.683
20
-111.985
11
152.117
21
-111.985
0
LINE
8
BLACK
6
CONTINUOUS
10
152.117
20
-111.985
11
152.117
21
-112.551
0
LINE
8
BLACK
6
CONTINUOUS
10
152.117
20
-112.551
11
152.683
21
-112.551
0
LINE
8
BLACK
6
CONTINUOUS
10
152.683
20
-115.091
11
152.683
21
-114.525
0
LINE
8
BLACK
6
CONTINUOUS
10
152.683
20
-114.525
11
152.117
21
-114.525
0
LINE
8
BLACK
6
CONTINUOUS
10
152.117
20
-114.525
11
152.117
21
-115.091
0
LINE
8
BLACK
6
CONTINUOUS
10
152.117
20
-115.091
11
152.683
21
-115.091
0
LINE
8
BLACK
6
CONTINUOUS
10
152.683
20
-117.631
11
152.683
21
-117.065
0
LINE
8
BLACK
6
CONTINUOUS
10
152.683
20
-117.065
11
152.117
21
-117.065
0
LINE
8
BLACK
6
CONTINUOUS
10
152.117
20
-117.065
11
152.117
21
-117.631
0
LINE
8
BLACK
6
CONTINUOUS
10
152.117
20
-117.631
11
152.683
21
-117.631
0
LINE
8
BLACK
6
CONTINUOUS
10
152.683
20
-120.171
11
152.683
21
-119.605
0
LINE
8
BLACK
6
CONTINUOUS
10
152.683
20
-119.605
11
152.117
21
-119.605
0
LINE
8
BLACK
6
CONTINUOUS
10
152.117
20
-119.605
11
152.117
21
-120.171
0
LINE
8
BLACK
6
CONTINUOUS
10
152.117
20
-120.171
11
152.683
21
-120.171
0
LINE
8
BLACK
6
CONTINUOUS
10
153.455
20
-65.8198
11
153.455
21
-65.2542
0
LINE
8
BLACK
6
CONTINUOUS
10
153.455
20
-65.2542
11
152.889
21
-65.2542
0
LINE
8
BLACK
6
CONTINUOUS
10
152.889
20
-65.2542
11
152.889
21
-65.8198
0
LINE
8
BLACK
6
CONTINUOUS
10
152.889
20
-65.8198
11
153.455
21
-65.8198
0
LINE
8
BLACK
6
CONTINUOUS
10
153.455
20
-81.0598
11
153.455
21
-80.4942
0
LINE
8
BLACK
6
CONTINUOUS
10
153.455
20
-80.4942
11
152.889
21
-80.4942
0
LINE
8
BLACK
6
CONTINUOUS
10
152.889
20
-80.4942
11
152.889
21
-81.0598
0
LINE
8
BLACK
6
CONTINUOUS
10
152.889
20
-81.0598
11
153.455
21
-81.0598
0
LINE
8
BLACK
6
CONTINUOUS
10
154.715
20
-125.505
11
154.715
21
-124.939
0
LINE
8
BLACK
6
CONTINUOUS
10
154.715
20
-124.939
11
154.149
21
-124.939
0
LINE
8
BLACK
6
CONTINUOUS
10
154.149
20
-124.939
11
154.149
21
-125.505
0
LINE
8
BLACK
6
CONTINUOUS
10
154.149
20
-125.505
11
154.715
21
-125.505
0
LINE
8
BLACK
6
CONTINUOUS
10
155.223
20
-89.6908
11
155.223
21
-89.1252
0
LINE
8
BLACK
6
CONTINUOUS
10
155.223
20
-89.1252
11
154.657
21
-89.1252
0
LINE
8
BLACK
6
CONTINUOUS
10
154.657
20
-89.1252
11
154.657
21
-89.6908
0
LINE
8
BLACK
6
CONTINUOUS
10
154.657
20
-89.6908
11
155.223
21
-89.6908
0
LINE
8
BLACK
6
CONTINUOUS
10
155.223
20
-92.2308
11
155.223
21
-91.6652
0
LINE
8
BLACK
6
CONTINUOUS
10
155.223
20
-91.6652
11
154.657
21
-91.6652
0
LINE
8
BLACK
6
CONTINUOUS
10
154.657
20
-91.6652
11
154.657
21
-92.2308
0
LINE
8
BLACK
6
CONTINUOUS
10
154.657
20
-92.2308
11
155.223
21
-92.2308
0
LINE
8
BLACK
6
CONTINUOUS
10
155.223
20
-117.631
11
155.223
21
-117.065
0
LINE
8
BLACK
6
CONTINUOUS
10
155.223
20
-117.065
11
154.657
21
-117.065
0
LINE
8
BLACK
6
CONTINUOUS
10
154.657
20
-117.065
11
154.657
21
-117.631
0
LINE
8
BLACK
6
CONTINUOUS
10
154.657
20
-117.631
11
155.223
21
-117.631
0
LINE
8
BLACK
6
CONTINUOUS
10
155.223
20
-120.171
11
155.223
21
-119.605
0
LINE
8
BLACK
6
CONTINUOUS
10
155.223
20
-119.605
11
154.657
21
-119.605
0
LINE
8
BLACK
6
CONTINUOUS
10
154.657
20
-119.605
11
154.657
21
-120.171
0
LINE
8
BLACK
6
CONTINUOUS
10
154.657
20
-120.171
11
155.223
21
-120.171
0
LINE
8
BLACK
6
CONTINUOUS
10
155.995
20
-65.8198
11
155.995
21
-65.2542
0
LINE
8
BLACK
6
CONTINUOUS
10
155.995
20
-65.2542
11
155.429
21
-65.2542
0
LINE
8
BLACK
6
CONTINUOUS
10
155.429
20
-65.2542
11
155.429
21
-65.8198
0
LINE
8
BLACK
6
CONTINUOUS
10
155.429
20
-65.8198
11
155.995
21
-65.8198
0
LINE
8
BLACK
6
CONTINUOUS
10
155.995
20
-81.0598
11
155.995
21
-80.4942
0
LINE
8
BLACK
6
CONTINUOUS
10
155.995
20
-80.4942
11
155.429
21
-80.4942
0
LINE
8
BLACK
6
CONTINUOUS
10
155.429
20
-80.4942
11
155.429
21
-81.0598
0
LINE
8
BLACK
6
CONTINUOUS
10
155.429
20
-81.0598
11
155.995
21
-81.0598
0
LINE
8
BLACK
6
CONTINUOUS
10
157.763
20
-89.6908
11
157.763
21
-89.1252
0
LINE
8
BLACK
6
CONTINUOUS
10
157.763
20
-89.1252
11
157.197
21
-89.1252
0
LINE
8
BLACK
6
CONTINUOUS
10
157.197
20
-89.1252
11
157.197
21
-89.6908
0
LINE
8
BLACK
6
CONTINUOUS
10
157.197
20
-89.6908
11
157.763
21
-89.6908
0
LINE
8
BLACK
6
CONTINUOUS
10
157.763
20
-92.2308
11
157.763
21
-91.6652
0
LINE
8
BLACK
6
CONTINUOUS
10
157.763
20
-91.6652
11
157.197
21
-91.6652
0
LINE
8
BLACK
6
CONTINUOUS
10
157.197
20
-91.6652
11
157.197
21
-92.2308
0
LINE
8
BLACK
6
CONTINUOUS
10
157.197
20
-92.2308
11
157.763
21
-92.2308
0
LINE
8
BLACK
6
CONTINUOUS
10
157.763
20
-117.631
11
157.763
21
-117.065
0
LINE
8
BLACK
6
CONTINUOUS
10
157.763
20
-117.065
11
157.197
21
-117.065
0
LINE
8
BLACK
6
CONTINUOUS
10
157.197
20
-117.065
11
157.197
21
-117.631
0
LINE
8
BLACK
6
CONTINUOUS
10
157.197
20
-117.631
11
157.763
21
-117.631
0
LINE
8
BLACK
6
CONTINUOUS
10
157.763
20
-120.171
11
157.763
21
-119.605
0
LINE
8
BLACK
6
CONTINUOUS
10
157.763
20
-119.605
11
157.197
21
-119.605
0
LINE
8
BLACK
6
CONTINUOUS
10
157.197
20
-119.605
11
157.197
21
-120.171
0
LINE
8
BLACK
6
CONTINUOUS
10
157.197
20
-120.171
11
157.763
21
-120.171
0
LINE
8
BLACK
6
CONTINUOUS
10
158.535
20
-65.8198
11
158.535
21
-65.2542
0
LINE
8
BLACK
6
CONTINUOUS
10
158.535
20
-65.2542
11
157.969
21
-65.2542
0
LINE
8
BLACK
6
CONTINUOUS
10
157.969
20
-65.2542
11
157.969
21
-65.8198
0
LINE
8
BLACK
6
CONTINUOUS
10
157.969
20
-65.8198
11
158.535
21
-65.8198
0
LINE
8
BLACK
6
CONTINUOUS
10
158.535
20
-81.0598
11
158.535
21
-80.4942
0
LINE
8
BLACK
6
CONTINUOUS
10
158.535
20
-80.4942
11
157.969
21
-80.4942
0
LINE
8
BLACK
6
CONTINUOUS
10
157.969
20
-80.4942
11
157.969
21
-81.0598
0
LINE
8
BLACK
6
CONTINUOUS
10
157.969
20
-81.0598
11
158.535
21
-81.0598
0
LINE
8
BLACK
6
CONTINUOUS
10
159.327
20
-84.6108
11
159.327
21
-84.0452
0
LINE
8
BLACK
6
CONTINUOUS
10
159.327
20
-84.0452
11
158.761
21
-84.0452
0
LINE
8
BLACK
6
CONTINUOUS
10
158.761
20
-84.0452
11
158.761
21
-84.6108
0
LINE
8
BLACK
6
CONTINUOUS
10
158.761
20
-84.6108
11
159.327
21
-84.6108
0
LINE
8
BLACK
6
CONTINUOUS
10
160.303
20
-89.6908
11
160.303
21
-89.1252
0
LINE
8
BLACK
6
CONTINUOUS
10
160.303
20
-89.1252
11
159.737
21
-89.1252
0
LINE
8
BLACK
6
CONTINUOUS
10
159.737
20
-89.1252
11
159.737
21
-89.6908
0
LINE
8
BLACK
6
CONTINUOUS
10
159.737
20
-89.6908
11
160.303
21
-89.6908
0
LINE
8
BLACK
6
CONTINUOUS
10
160.303
20
-92.2308
11
160.303
21
-91.6652
0
LINE
8
BLACK
6
CONTINUOUS
10
160.303
20
-91.6652
11
159.737
21
-91.6652
0
LINE
8
BLACK
6
CONTINUOUS
10
159.737
20
-91.6652
11
159.737
21
-92.2308
0
LINE
8
BLACK
6
CONTINUOUS
10
159.737
20
-92.2308
11
160.303
21
-92.2308
0
LINE
8
BLACK
6
CONTINUOUS
10
160.303
20
-117.631
11
160.303
21
-117.065
0
LINE
8
BLACK
6
CONTINUOUS
10
160.303
20
-117.065
11
159.737
21
-117.065
0
LINE
8
BLACK
6
CONTINUOUS
10
159.737
20
-117.065
11
159.737
21
-117.631
0
LINE
8
BLACK
6
CONTINUOUS
10
159.737
20
-117.631
11
160.303
21
-117.631
0
LINE
8
BLACK
6
CONTINUOUS
10
160.303
20
-120.171
11
160.303
21
-119.605
0
LINE
8
BLACK
6
CONTINUOUS
10
160.303
20
-119.605
11
159.737
21
-119.605
0
LINE
8
BLACK
6
CONTINUOUS
10
159.737
20
-119.605
11
159.737
21
-120.171
0
LINE
8
BLACK
6
CONTINUOUS
10
159.737
20
-120.171
11
160.303
21
-120.171
0
LINE
8
BLACK
6
CONTINUOUS
10
161.075
20
-65.8198
11
161.075
21
-65.2542
0
LINE
8
BLACK
6
CONTINUOUS
10
161.075
20
-65.2542
11
160.509
21
-65.2542
0
LINE
8
BLACK
6
CONTINUOUS
10
160.509
20
-65.2542
11
160.509
21
-65.8198
0
LINE
8
BLACK
6
CONTINUOUS
10
160.509
20
-65.8198
11
161.075
21
-65.8198
0
LINE
8
BLACK
6
CONTINUOUS
10
161.075
20
-81.0598
11
161.075
21
-80.4942
0
LINE
8
BLACK
6
CONTINUOUS
10
161.075
20
-80.4942
11
160.509
21
-80.4942
0
LINE
8
BLACK
6
CONTINUOUS
10
160.509
20
-80.4942
11
160.509
21
-81.0598
0
LINE
8
BLACK
6
CONTINUOUS
10
160.509
20
-81.0598
11
161.075
21
-81.0598
0
LINE
8
BLACK
6
CONTINUOUS
10
161.827
20
-84.6108
11
161.827
21
-84.0452
0
LINE
8
BLACK
6
CONTINUOUS
10
161.827
20
-84.0452
11
161.261
21
-84.0452
0
LINE
8
BLACK
6
CONTINUOUS
10
161.261
20
-84.0452
11
161.261
21
-84.6108
0
LINE
8
BLACK
6
CONTINUOUS
10
161.261
20
-84.6108
11
161.827
21
-84.6108
0
LINE
8
BLACK
6
CONTINUOUS
10
162.843
20
-89.6908
11
162.843
21
-89.1252
0
LINE
8
BLACK
6
CONTINUOUS
10
162.843
20
-89.1252
11
162.277
21
-89.1252
0
LINE
8
BLACK
6
CONTINUOUS
10
162.277
20
-89.1252
11
162.277
21
-89.6908
0
LINE
8
BLACK
6
CONTINUOUS
10
162.277
20
-89.6908
11
162.843
21
-89.6908
0
LINE
8
BLACK
6
CONTINUOUS
10
162.843
20
-92.2308
11
162.843
21
-91.6652
0
LINE
8
BLACK
6
CONTINUOUS
10
162.843
20
-91.6652
11
162.277
21
-91.6652
0
LINE
8
BLACK
6
CONTINUOUS
10
162.277
20
-91.6652
11
162.277
21
-92.2308
0
LINE
8
BLACK
6
CONTINUOUS
10
162.277
20
-92.2308
11
162.843
21
-92.2308
0
LINE
8
BLACK
6
CONTINUOUS
10
162.843
20
-117.631
11
162.843
21
-117.065
0
LINE
8
BLACK
6
CONTINUOUS
10
162.843
20
-117.065
11
162.277
21
-117.065
0
LINE
8
BLACK
6
CONTINUOUS
10
162.277
20
-117.065
11
162.277
21
-117.631
0
LINE
8
BLACK
6
CONTINUOUS
10
162.277
20
-117.631
11
162.843
21
-117.631
0
LINE
8
BLACK
6
CONTINUOUS
10
162.843
20
-120.171
11
162.843
21
-119.605
0
LINE
8
BLACK
6
CONTINUOUS
10
162.843
20
-119.605
11
162.277
21
-119.605
0
LINE
8
BLACK
6
CONTINUOUS
10
162.277
20
-119.605
11
162.277
21
-120.171
0
LINE
8
BLACK
6
CONTINUOUS
10
162.277
20
-120.171
11
162.843
21
-120.171
0
LINE
8
BLACK
6
CONTINUOUS
10
163.615
20
-65.8198
11
163.615
21
-65.2542
0
LINE
8
BLACK
6
CONTINUOUS
10
163.615
20
-65.2542
11
163.049
21
-65.2542
0
LINE
8
BLACK
6
CONTINUOUS
10
163.049
20
-65.2542
11
163.049
21
-65.8198
0
LINE
8
BLACK
6
CONTINUOUS
10
163.049
20
-65.8198
11
163.615
21
-65.8198
0
LINE
8
BLACK
6
CONTINUOUS
10
163.615
20
-81.0598
11
163.615
21
-80.4942
0
LINE
8
BLACK
6
CONTINUOUS
10
163.615
20
-80.4942
11
163.049
21
-80.4942
0
LINE
8
BLACK
6
CONTINUOUS
10
163.049
20
-80.4942
11
163.049
21
-81.0598
0
LINE
8
BLACK
6
CONTINUOUS
10
163.049
20
-81.0598
11
163.615
21
-81.0598
0
LINE
8
BLACK
6
CONTINUOUS
10
165.383
20
-89.6908
11
165.383
21
-89.1252
0
LINE
8
BLACK
6
CONTINUOUS
10
165.383
20
-89.1252
11
164.817
21
-89.1252
0
LINE
8
BLACK
6
CONTINUOUS
10
164.817
20
-89.1252
11
164.817
21
-89.6908
0
LINE
8
BLACK
6
CONTINUOUS
10
164.817
20
-89.6908
11
165.383
21
-89.6908
0
LINE
8
BLACK
6
CONTINUOUS
10
165.383
20
-92.2308
11
165.383
21
-91.6652
0
LINE
8
BLACK
6
CONTINUOUS
10
165.383
20
-91.6652
11
164.817
21
-91.6652
0
LINE
8
BLACK
6
CONTINUOUS
10
164.817
20
-91.6652
11
164.817
21
-92.2308
0
LINE
8
BLACK
6
CONTINUOUS
10
164.817
20
-92.2308
11
165.383
21
-92.2308
0
LINE
8
BLACK
6
CONTINUOUS
10
165.383
20
-117.631
11
165.383
21
-117.065
0
LINE
8
BLACK
6
CONTINUOUS
10
165.383
20
-117.065
11
164.817
21
-117.065
0
LINE
8
BLACK
6
CONTINUOUS
10
164.817
20
-117.065
11
164.817
21
-117.631
0
LINE
8
BLACK
6
CONTINUOUS
10
164.817
20
-117.631
11
165.383
21
-117.631
0
LINE
8
BLACK
6
CONTINUOUS
10
165.383
20
-120.171
11
165.383
21
-119.605
0
LINE
8
BLACK
6
CONTINUOUS
10
165.383
20
-119.605
11
164.817
21
-119.605
0
LINE
8
BLACK
6
CONTINUOUS
10
164.817
20
-119.605
11
164.817
21
-120.171
0
LINE
8
BLACK
6
CONTINUOUS
10
164.817
20
-120.171
11
165.383
21
-120.171
0
LINE
8
BLACK
6
CONTINUOUS
10
166.155
20
-65.8198
11
166.155
21
-65.2542
0
LINE
8
BLACK
6
CONTINUOUS
10
166.155
20
-65.2542
11
165.589
21
-65.2542
0
LINE
8
BLACK
6
CONTINUOUS
10
165.589
20
-65.2542
11
165.589
21
-65.8198
0
LINE
8
BLACK
6
CONTINUOUS
10
165.589
20
-65.8198
11
166.155
21
-65.8198
0
LINE
8
BLACK
6
CONTINUOUS
10
166.155
20
-81.0598
11
166.155
21
-80.4942
0
LINE
8
BLACK
6
CONTINUOUS
10
166.155
20
-80.4942
11
165.589
21
-80.4942
0
LINE
8
BLACK
6
CONTINUOUS
10
165.589
20
-80.4942
11
165.589
21
-81.0598
0
LINE
8
BLACK
6
CONTINUOUS
10
165.589
20
-81.0598
11
166.155
21
-81.0598
0
LINE
8
BLACK
6
CONTINUOUS
10
167.923
20
-89.6908
11
167.923
21
-89.1252
0
LINE
8
BLACK
6
CONTINUOUS
10
167.923
20
-89.1252
11
167.357
21
-89.1252
0
LINE
8
BLACK
6
CONTINUOUS
10
167.357
20
-89.1252
11
167.357
21
-89.6908
0
LINE
8
BLACK
6
CONTINUOUS
10
167.357
20
-89.6908
11
167.923
21
-89.6908
0
LINE
8
BLACK
6
CONTINUOUS
10
167.923
20
-92.2308
11
167.923
21
-91.6652
0
LINE
8
BLACK
6
CONTINUOUS
10
167.923
20
-91.6652
11
167.357
21
-91.6652
0
LINE
8
BLACK
6
CONTINUOUS
10
167.357
20
-91.6652
11
167.357
21
-92.2308
0
LINE
8
BLACK
6
CONTINUOUS
10
167.357
20
-92.2308
11
167.923
21
-92.2308
0
LINE
8
BLACK
6
CONTINUOUS
10
167.923
20
-117.631
11
167.923
21
-117.065
0
LINE
8
BLACK
6
CONTINUOUS
10
167.923
20
-117.065
11
167.357
21
-117.065
0
LINE
8
BLACK
6
CONTINUOUS
10
167.357
20
-117.065
11
167.357
21
-117.631
0
LINE
8
BLACK
6
CONTINUOUS
10
167.357
20
-117.631
11
167.923
21
-117.631
0
LINE
8
BLACK
6
CONTINUOUS
10
167.923
20
-120.171
11
167.923
21
-119.605
0
LINE
8
BLACK
6
CONTINUOUS
10
167.923
20
-119.605
11
167.357
21
-119.605
0
LINE
8
BLACK
6
CONTINUOUS
10
167.357
20
-119.605
11
167.357
21
-120.171
0
LINE
8
BLACK
6
CONTINUOUS
10
167.357
20
-120.171
11
167.923
21
-120.171
0
LINE
8
BLACK
6
CONTINUOUS
10
168.695
20
-65.8198
11
168.695
21
-65.2542
0
LINE
8
BLACK
6
CONTINUOUS
10
168.695
20
-65.2542
11
168.129
21
-65.2542
0
LINE
8
BLACK
6
CONTINUOUS
10
168.129
20
-65.2542
11
168.129
21
-65.8198
0
LINE
8
BLACK
6
CONTINUOUS
10
168.129
20
-65.8198
11
168.695
21
-65.8198
0
LINE
8
BLACK
6
CONTINUOUS
10
168.695
20
-81.0598
11
168.695
21
-80.4942
0
LINE
8
BLACK
6
CONTINUOUS
10
168.695
20
-80.4942
11
168.129
21
-80.4942
0
LINE
8
BLACK
6
CONTINUOUS
10
168.129
20
-80.4942
11
168.129
21
-81.0598
0
LINE
8
BLACK
6
CONTINUOUS
10
168.129
20
-81.0598
11
168.695
21
-81.0598
0
LINE
8
BLACK
6
CONTINUOUS
10
170.463
20
-89.6908
11
170.463
21
-89.1252
0
LINE
8
BLACK
6
CONTINUOUS
10
170.463
20
-89.1252
11
169.897
21
-89.1252
0
LINE
8
BLACK
6
CONTINUOUS
10
169.897
20
-89.1252
11
169.897
21
-89.6908
0
LINE
8
BLACK
6
CONTINUOUS
10
169.897
20
-89.6908
11
170.463
21
-89.6908
0
LINE
8
BLACK
6
CONTINUOUS
10
170.463
20
-92.2308
11
170.463
21
-91.6652
0
LINE
8
BLACK
6
CONTINUOUS
10
170.463
20
-91.6652
11
169.897
21
-91.6652
0
LINE
8
BLACK
6
CONTINUOUS
10
169.897
20
-91.6652
11
169.897
21
-92.2308
0
LINE
8
BLACK
6
CONTINUOUS
10
169.897
20
-92.2308
11
170.463
21
-92.2308
0
LINE
8
BLACK
6
CONTINUOUS
10
170.463
20
-117.631
11
170.463
21
-117.065
0
LINE
8
BLACK
6
CONTINUOUS
10
170.463
20
-117.065
11
169.897
21
-117.065
0
LINE
8
BLACK
6
CONTINUOUS
10
169.897
20
-117.065
11
169.897
21
-117.631
0
LINE
8
BLACK
6
CONTINUOUS
10
169.897
20
-117.631
11
170.463
21
-117.631
0
LINE
8
BLACK
6
CONTINUOUS
10
170.463
20
-120.171
11
170.463
21
-119.605
0
LINE
8
BLACK
6
CONTINUOUS
10
170.463
20
-119.605
11
169.897
21
-119.605
0
LINE
8
BLACK
6
CONTINUOUS
10
169.897
20
-119.605
11
169.897
21
-120.171
0
LINE
8
BLACK
6
CONTINUOUS
10
169.897
20
-120.171
11
170.463
21
-120.171
0
LINE
8
BLACK
6
CONTINUOUS
10
171.235
20
-65.8198
11
171.235
21
-65.2542
0
LINE
8
BLACK
6
CONTINUOUS
10
171.235
20
-65.2542
11
170.669
21
-65.2542
0
LINE
8
BLACK
6
CONTINUOUS
10
170.669
20
-65.2542
11
170.669
21
-65.8198
0
LINE
8
BLACK
6
CONTINUOUS
10
170.669
20
-65.8198
11
171.235
21
-65.8198
0
LINE
8
BLACK
6
CONTINUOUS
10
171.235
20
-81.0598
11
171.235
21
-80.4942
0
LINE
8
BLACK
6
CONTINUOUS
10
171.235
20
-80.4942
11
170.669
21
-80.4942
0
LINE
8
BLACK
6
CONTINUOUS
10
170.669
20
-80.4942
11
170.669
21
-81.0598
0
LINE
8
BLACK
6
CONTINUOUS
10
170.669
20
-81.0598
11
171.235
21
-81.0598
0
LINE
8
BLACK
6
CONTINUOUS
10
173.003
20
-89.6908
11
173.003
21
-89.1252
0
LINE
8
BLACK
6
CONTINUOUS
10
173.003
20
-89.1252
11
172.437
21
-89.1252
0
LINE
8
BLACK
6
CONTINUOUS
10
172.437
20
-89.1252
11
172.437
21
-89.6908
0
LINE
8
BLACK
6
CONTINUOUS
10
172.437
20
-89.6908
11
173.003
21
-89.6908
0
LINE
8
BLACK
6
CONTINUOUS
10
173.003
20
-92.2308
11
173.003
21
-91.6652
0
LINE
8
BLACK
6
CONTINUOUS
10
173.003
20
-91.6652
11
172.437
21
-91.6652
0
LINE
8
BLACK
6
CONTINUOUS
10
172.437
20
-91.6652
11
172.437
21
-92.2308
0
LINE
8
BLACK
6
CONTINUOUS
10
172.437
20
-92.2308
11
173.003
21
-92.2308
0
LINE
8
BLACK
6
CONTINUOUS
10
173.003
20
-117.631
11
173.003
21
-117.065
0
LINE
8
BLACK
6
CONTINUOUS
10
173.003
20
-117.065
11
172.437
21
-117.065
0
LINE
8
BLACK
6
CONTINUOUS
10
172.437
20
-117.065
11
172.437
21
-117.631
0
LINE
8
BLACK
6
CONTINUOUS
10
172.437
20
-117.631
11
173.003
21
-117.631
0
LINE
8
BLACK
6
CONTINUOUS
10
173.003
20
-120.171
11
173.003
21
-119.605
0
LINE
8
BLACK
6
CONTINUOUS
10
173.003
20
-119.605
11
172.437
21
-119.605
0
LINE
8
BLACK
6
CONTINUOUS
10
172.437
20
-119.605
11
172.437
21
-120.171
0
LINE
8
BLACK
6
CONTINUOUS
10
172.437
20
-120.171
11
173.003
21
-120.171
0
LINE
8
BLACK
6
CONTINUOUS
10
173.775
20
-65.8198
11
173.775
21
-65.2542
0
LINE
8
BLACK
6
CONTINUOUS
10
173.775
20
-65.2542
11
173.209
21
-65.2542
0
LINE
8
BLACK
6
CONTINUOUS
10
173.209
20
-65.2542
11
173.209
21
-65.8198
0
LINE
8
BLACK
6
CONTINUOUS
10
173.209
20
-65.8198
11
173.775
21
-65.8198
0
LINE
8
BLACK
6
CONTINUOUS
10
173.775
20
-81.0598
11
173.775
21
-80.4942
0
LINE
8
BLACK
6
CONTINUOUS
10
173.775
20
-80.4942
11
173.209
21
-80.4942
0
LINE
8
BLACK
6
CONTINUOUS
10
173.209
20
-80.4942
11
173.209
21
-81.0598
0
LINE
8
BLACK
6
CONTINUOUS
10
173.209
20
-81.0598
11
173.775
21
-81.0598
0
LINE
8
BLACK
6
CONTINUOUS
10
173.785
20
-125.505
11
173.785
21
-124.939
0
LINE
8
BLACK
6
CONTINUOUS
10
173.785
20
-124.939
11
173.219
21
-124.939
0
LINE
8
BLACK
6
CONTINUOUS
10
173.219
20
-124.939
11
173.219
21
-125.505
0
LINE
8
BLACK
6
CONTINUOUS
10
173.219
20
-125.505
11
173.785
21
-125.505
0
LINE
8
BLACK
6
CONTINUOUS
10
175.543
20
-89.6908
11
175.543
21
-89.1252
0
LINE
8
BLACK
6
CONTINUOUS
10
175.543
20
-89.1252
11
174.977
21
-89.1252
0
LINE
8
BLACK
6
CONTINUOUS
10
174.977
20
-89.1252
11
174.977
21
-89.6908
0
LINE
8
BLACK
6
CONTINUOUS
10
174.977
20
-89.6908
11
175.543
21
-89.6908
0
LINE
8
BLACK
6
CONTINUOUS
10
175.543
20
-92.2308
11
175.543
21
-91.6652
0
LINE
8
BLACK
6
CONTINUOUS
10
175.543
20
-91.6652
11
174.977
21
-91.6652
0
LINE
8
BLACK
6
CONTINUOUS
10
174.977
20
-91.6652
11
174.977
21
-92.2308
0
LINE
8
BLACK
6
CONTINUOUS
10
174.977
20
-92.2308
11
175.543
21
-92.2308
0
LINE
8
BLACK
6
CONTINUOUS
10
175.543
20
-117.631
11
175.543
21
-117.065
0
LINE
8
BLACK
6
CONTINUOUS
10
175.543
20
-117.065
11
174.977
21
-117.065
0
LINE
8
BLACK
6
CONTINUOUS
10
174.977
20
-117.065
11
174.977
21
-117.631
0
LINE
8
BLACK
6
CONTINUOUS
10
174.977
20
-117.631
11
175.543
21
-117.631
0
LINE
8
BLACK
6
CONTINUOUS
10
175.543
20
-120.171
11
175.543
21
-119.605
0
LINE
8
BLACK
6
CONTINUOUS
10
175.543
20
-119.605
11
174.977
21
-119.605
0
LINE
8
BLACK
6
CONTINUOUS
10
174.977
20
-119.605
11
174.977
21
-120.171
0
LINE
8
BLACK
6
CONTINUOUS
10
174.977
20
-120.171
11
175.543
21
-120.171
0
LINE
8
BLACK
6
CONTINUOUS
10
175.868
20
-84.6616
11
175.868
21
-84.096
0
LINE
8
BLACK
6
CONTINUOUS
10
175.868
20
-84.096
11
175.302
21
-84.096
0
LINE
8
BLACK
6
CONTINUOUS
10
175.302
20
-84.096
11
175.302
21
-84.6616
0
LINE
8
BLACK
6
CONTINUOUS
10
175.302
20
-84.6616
11
175.868
21
-84.6616
0
LINE
8
BLACK
6
CONTINUOUS
10
176.285
20
-125.505
11
176.285
21
-124.939
0
LINE
8
BLACK
6
CONTINUOUS
10
176.285
20
-124.939
11
175.719
21
-124.939
0
LINE
8
BLACK
6
CONTINUOUS
10
175.719
20
-124.939
11
175.719
21
-125.505
0
LINE
8
BLACK
6
CONTINUOUS
10
175.719
20
-125.505
11
176.285
21
-125.505
0
LINE
8
BLACK
6
CONTINUOUS
10
176.315
20
-65.8198
11
176.315
21
-65.2542
0
LINE
8
BLACK
6
CONTINUOUS
10
176.315
20
-65.2542
11
175.749
21
-65.2542
0
LINE
8
BLACK
6
CONTINUOUS
10
175.749
20
-65.2542
11
175.749
21
-65.8198
0
LINE
8
BLACK
6
CONTINUOUS
10
175.749
20
-65.8198
11
176.315
21
-65.8198
0
LINE
8
BLACK
6
CONTINUOUS
10
176.315
20
-81.0598
11
176.315
21
-80.4942
0
LINE
8
BLACK
6
CONTINUOUS
10
176.315
20
-80.4942
11
175.749
21
-80.4942
0
LINE
8
BLACK
6
CONTINUOUS
10
175.749
20
-80.4942
11
175.749
21
-81.0598
0
LINE
8
BLACK
6
CONTINUOUS
10
175.749
20
-81.0598
11
176.315
21
-81.0598
0
LINE
8
BLACK
6
CONTINUOUS
10
178.083
20
-89.6908
11
178.083
21
-89.1252
0
LINE
8
BLACK
6
CONTINUOUS
10
178.083
20
-89.1252
11
177.517
21
-89.1252
0
LINE
8
BLACK
6
CONTINUOUS
10
177.517
20
-89.1252
11
177.517
21
-89.6908
0
LINE
8
BLACK
6
CONTINUOUS
10
177.517
20
-89.6908
11
178.083
21
-89.6908
0
LINE
8
BLACK
6
CONTINUOUS
10
178.083
20
-92.2308
11
178.083
21
-91.6652
0
LINE
8
BLACK
6
CONTINUOUS
10
178.083
20
-91.6652
11
177.517
21
-91.6652
0
LINE
8
BLACK
6
CONTINUOUS
10
177.517
20
-91.6652
11
177.517
21
-92.2308
0
LINE
8
BLACK
6
CONTINUOUS
10
177.517
20
-92.2308
11
178.083
21
-92.2308
0
LINE
8
BLACK
6
CONTINUOUS
10
178.083
20
-94.7708
11
178.083
21
-94.2052
0
LINE
8
BLACK
6
CONTINUOUS
10
178.083
20
-94.2052
11
177.517
21
-94.2052
0
LINE
8
BLACK
6
CONTINUOUS
10
177.517
20
-94.2052
11
177.517
21
-94.7708
0
LINE
8
BLACK
6
CONTINUOUS
10
177.517
20
-94.7708
11
178.083
21
-94.7708
0
LINE
8
BLACK
6
CONTINUOUS
10
178.083
20
-97.3108
11
178.083
21
-96.7452
0
LINE
8
BLACK
6
CONTINUOUS
10
178.083
20
-96.7452
11
177.517
21
-96.7452
0
LINE
8
BLACK
6
CONTINUOUS
10
177.517
20
-96.7452
11
177.517
21
-97.3108
0
LINE
8
BLACK
6
CONTINUOUS
10
177.517
20
-97.3108
11
178.083
21
-97.3108
0
LINE
8
BLACK
6
CONTINUOUS
10
178.083
20
-99.8508
11
178.083
21
-99.2852
0
LINE
8
BLACK
6
CONTINUOUS
10
178.083
20
-99.2852
11
177.517
21
-99.2852
0
LINE
8
BLACK
6
CONTINUOUS
10
177.517
20
-99.2852
11
177.517
21
-99.8508
0
LINE
8
BLACK
6
CONTINUOUS
10
177.517
20
-99.8508
11
178.083
21
-99.8508
0
LINE
8
BLACK
6
CONTINUOUS
10
178.083
20
-102.391
11
178.083
21
-101.825
0
LINE
8
BLACK
6
CONTINUOUS
10
178.083
20
-101.825
11
177.517
21
-101.825
0
LINE
8
BLACK
6
CONTINUOUS
10
177.517
20
-101.825
11
177.517
21
-102.391
0
LINE
8
BLACK
6
CONTINUOUS
10
177.517
20
-102.391
11
178.083
21
-102.391
0
LINE
8
BLACK
6
CONTINUOUS
10
178.083
20
-104.931
11
178.083
21
-104.365
0
LINE
8
BLACK
6
CONTINUOUS
10
178.083
20
-104.365
11
177.517
21
-104.365
0
LINE
8
BLACK
6
CONTINUOUS
10
177.517
20
-104.365
11
177.517
21
-104.931
0
LINE
8
BLACK
6
CONTINUOUS
10
177.517
20
-104.931
11
178.083
21
-104.931
0
LINE
8
BLACK
6
CONTINUOUS
10
178.083
20
-107.471
11
178.083
21
-106.905
0
LINE
8
BLACK
6
CONTINUOUS
10
178.083
20
-106.905
11
177.517
21
-106.905
0
LINE
8
BLACK
6
CONTINUOUS
10
177.517
20
-106.905
11
177.517
21
-107.471
0
LINE
8
BLACK
6
CONTINUOUS
10
177.517
20
-107.471
11
178.083
21
-107.471
0
LINE
8
BLACK
6
CONTINUOUS
10
178.083
20
-110.011
11
178.083
21
-109.445
0
LINE
8
BLACK
6
CONTINUOUS
10
178.083
20
-109.445
11
177.517
21
-109.445
0
LINE
8
BLACK
6
CONTINUOUS
10
177.517
20
-109.445
11
177.517
21
-110.011
0
LINE
8
BLACK
6
CONTINUOUS
10
177.517
20
-110.011
11
178.083
21
-110.011
0
LINE
8
BLACK
6
CONTINUOUS
10
178.083
20
-112.551
11
178.083
21
-111.985
0
LINE
8
BLACK
6
CONTINUOUS
10
178.083
20
-111.985
11
177.517
21
-111.985
0
LINE
8
BLACK
6
CONTINUOUS
10
177.517
20
-111.985
11
177.517
21
-112.551
0
LINE
8
BLACK
6
CONTINUOUS
10
177.517
20
-112.551
11
178.083
21
-112.551
0
LINE
8
BLACK
6
CONTINUOUS
10
178.083
20
-115.091
11
178.083
21
-114.525
0
LINE
8
BLACK
6
CONTINUOUS
10
178.083
20
-114.525
11
177.517
21
-114.525
0
LINE
8
BLACK
6
CONTINUOUS
10
177.517
20
-114.525
11
177.517
21
-115.091
0
LINE
8
BLACK
6
CONTINUOUS
10
177.517
20
-115.091
11
178.083
21
-115.091
0
LINE
8
BLACK
6
CONTINUOUS
10
178.083
20
-117.631
11
178.083
21
-117.065
0
LINE
8
BLACK
6
CONTINUOUS
10
178.083
20
-117.065
11
177.517
21
-117.065
0
LINE
8
BLACK
6
CONTINUOUS
10
177.517
20
-117.065
11
177.517
21
-117.631
0
LINE
8
BLACK
6
CONTINUOUS
10
177.517
20
-117.631
11
178.083
21
-117.631
0
LINE
8
BLACK
6
CONTINUOUS
10
178.083
20
-120.171
11
178.083
21
-119.605
0
LINE
8
BLACK
6
CONTINUOUS
10
178.083
20
-119.605
11
177.517
21
-119.605
0
LINE
8
BLACK
6
CONTINUOUS
10
177.517
20
-119.605
11
177.517
21
-120.171
0
LINE
8
BLACK
6
CONTINUOUS
10
177.517
20
-120.171
11
178.083
21
-120.171
0
LINE
8
BLACK
6
CONTINUOUS
10
178.368
20
-84.6616
11
178.368
21
-84.096
0
LINE
8
BLACK
6
CONTINUOUS
10
178.368
20
-84.096
11
177.802
21
-84.096
0
LINE
8
BLACK
6
CONTINUOUS
10
177.802
20
-84.096
11
177.802
21
-84.6616
0
LINE
8
BLACK
6
CONTINUOUS
10
177.802
20
-84.6616
11
178.368
21
-84.6616
0
LINE
8
BLACK
6
CONTINUOUS
10
178.855
20
-65.8198
11
178.855
21
-65.2542
0
LINE
8
BLACK
6
CONTINUOUS
10
178.855
20
-65.2542
11
178.289
21
-65.2542
0
LINE
8
BLACK
6
CONTINUOUS
10
178.289
20
-65.2542
11
178.289
21
-65.8198
0
LINE
8
BLACK
6
CONTINUOUS
10
178.289
20
-65.8198
11
178.855
21
-65.8198
0
LINE
8
BLACK
6
CONTINUOUS
10
178.855
20
-81.0598
11
178.855
21
-80.4942
0
LINE
8
BLACK
6
CONTINUOUS
10
178.855
20
-80.4942
11
178.289
21
-80.4942
0
LINE
8
BLACK
6
CONTINUOUS
10
178.289
20
-80.4942
11
178.289
21
-81.0598
0
LINE
8
BLACK
6
CONTINUOUS
10
178.289
20
-81.0598
11
178.855
21
-81.0598
0
LINE
8
BLACK
6
CONTINUOUS
10
180.623
20
-92.2308
11
180.623
21
-91.6652
0
LINE
8
BLACK
6
CONTINUOUS
10
180.623
20
-91.6652
11
180.057
21
-91.6652
0
LINE
8
BLACK
6
CONTINUOUS
10
180.057
20
-91.6652
11
180.057
21
-92.2308
0
LINE
8
BLACK
6
CONTINUOUS
10
180.057
20
-92.2308
11
180.623
21
-92.2308
0
LINE
8
BLACK
6
CONTINUOUS
10
180.623
20
-94.7708
11
180.623
21
-94.2052
0
LINE
8
BLACK
6
CONTINUOUS
10
180.623
20
-94.2052
11
180.057
21
-94.2052
0
LINE
8
BLACK
6
CONTINUOUS
10
180.057
20
-94.2052
11
180.057
21
-94.7708
0
LINE
8
BLACK
6
CONTINUOUS
10
180.057
20
-94.7708
11
180.623
21
-94.7708
0
LINE
8
BLACK
6
CONTINUOUS
10
180.623
20
-97.3108
11
180.623
21
-96.7452
0
LINE
8
BLACK
6
CONTINUOUS
10
180.623
20
-96.7452
11
180.057
21
-96.7452
0
LINE
8
BLACK
6
CONTINUOUS
10
180.057
20
-96.7452
11
180.057
21
-97.3108
0
LINE
8
BLACK
6
CONTINUOUS
10
180.057
20
-97.3108
11
180.623
21
-97.3108
0
LINE
8
BLACK
6
CONTINUOUS
10
180.623
20
-99.8508
11
180.623
21
-99.2852
0
LINE
8
BLACK
6
CONTINUOUS
10
180.623
20
-99.2852
11
180.057
21
-99.2852
0
LINE
8
BLACK
6
CONTINUOUS
10
180.057
20
-99.2852
11
180.057
21
-99.8508
0
LINE
8
BLACK
6
CONTINUOUS
10
180.057
20
-99.8508
11
180.623
21
-99.8508
0
LINE
8
BLACK
6
CONTINUOUS
10
180.623
20
-102.391
11
180.623
21
-101.825
0
LINE
8
BLACK
6
CONTINUOUS
10
180.623
20
-101.825
11
180.057
21
-101.825
0
LINE
8
BLACK
6
CONTINUOUS
10
180.057
20
-101.825
11
180.057
21
-102.391
0
LINE
8
BLACK
6
CONTINUOUS
10
180.057
20
-102.391
11
180.623
21
-102.391
0
LINE
8
BLACK
6
CONTINUOUS
10
180.623
20
-104.931
11
180.623
21
-104.365
0
LINE
8
BLACK
6
CONTINUOUS
10
180.623
20
-104.365
11
180.057
21
-104.365
0
LINE
8
BLACK
6
CONTINUOUS
10
180.057
20
-104.365
11
180.057
21
-104.931
0
LINE
8
BLACK
6
CONTINUOUS
10
180.057
20
-104.931
11
180.623
21
-104.931
0
LINE
8
BLACK
6
CONTINUOUS
10
180.623
20
-107.471
11
180.623
21
-106.905
0
LINE
8
BLACK
6
CONTINUOUS
10
180.623
20
-106.905
11
180.057
21
-106.905
0
LINE
8
BLACK
6
CONTINUOUS
10
180.057
20
-106.905
11
180.057
21
-107.471
0
LINE
8
BLACK
6
CONTINUOUS
10
180.057
20
-107.471
11
180.623
21
-107.471
0
LINE
8
BLACK
6
CONTINUOUS
10
180.623
20
-110.011
11
180.623
21
-109.445
0
LINE
8
BLACK
6
CONTINUOUS
10
180.623
20
-109.445
11
180.057
21
-109.445
0
LINE
8
BLACK
6
CONTINUOUS
10
180.057
20
-109.445
11
180.057
21
-110.011
0
LINE
8
BLACK
6
CONTINUOUS
10
180.057
20
-110.011
11
180.623
21
-110.011
0
LINE
8
BLACK
6
CONTINUOUS
10
180.623
20
-112.551
11
180.623
21
-111.985
0
LINE
8
BLACK
6
CONTINUOUS
10
180.623
20
-111.985
11
180.057
21
-111.985
0
LINE
8
BLACK
6
CONTINUOUS
10
180.057
20
-111.985
11
180.057
21
-112.551
0
LINE
8
BLACK
6
CONTINUOUS
10
180.057
20
-112.551
11
180.623
21
-112.551
0
LINE
8
BLACK
6
CONTINUOUS
10
180.623
20
-115.091
11
180.623
21
-114.525
0
LINE
8
BLACK
6
CONTINUOUS
10
180.623
20
-114.525
11
180.057
21
-114.525
0
LINE
8
BLACK
6
CONTINUOUS
10
180.057
20
-114.525
11
180.057
21
-115.091
0
LINE
8
BLACK
6
CONTINUOUS
10
180.057
20
-115.091
11
180.623
21
-115.091
0
LINE
8
BLACK
6
CONTINUOUS
10
180.623
20
-117.631
11
180.623
21
-117.065
0
LINE
8
BLACK
6
CONTINUOUS
10
180.623
20
-117.065
11
180.057
21
-117.065
0
LINE
8
BLACK
6
CONTINUOUS
10
180.057
20
-117.065
11
180.057
21
-117.631
0
LINE
8
BLACK
6
CONTINUOUS
10
180.057
20
-117.631
11
180.623
21
-117.631
0
LINE
8
BLACK
6
CONTINUOUS
10
181.395
20
-65.8198
11
181.395
21
-65.2542
0
LINE
8
BLACK
6
CONTINUOUS
10
181.395
20
-65.2542
11
180.829
21
-65.2542
0
LINE
8
BLACK
6
CONTINUOUS
10
180.829
20
-65.2542
11
180.829
21
-65.8198
0
LINE
8
BLACK
6
CONTINUOUS
10
180.829
20
-65.8198
11
181.395
21
-65.8198
0
LINE
8
BLACK
6
CONTINUOUS
10
181.395
20
-81.0598
11
181.395
21
-80.4942
0
LINE
8
BLACK
6
CONTINUOUS
10
181.395
20
-80.4942
11
180.829
21
-80.4942
0
LINE
8
BLACK
6
CONTINUOUS
10
180.829
20
-80.4942
11
180.829
21
-81.0598
0
LINE
8
BLACK
6
CONTINUOUS
10
180.829
20
-81.0598
11
181.395
21
-81.0598
0
LINE
8
BLACK
6
CONTINUOUS
10
184.788
20
-66.2612
11
184.788
21
-65.6956
0
LINE
8
BLACK
6
CONTINUOUS
10
184.788
20
-65.6956
11
184.223
21
-65.6956
0
LINE
8
BLACK
6
CONTINUOUS
10
184.223
20
-65.6956
11
184.223
21
-66.2612
0
LINE
8
BLACK
6
CONTINUOUS
10
184.223
20
-66.2612
11
184.788
21
-66.2612
0
LINE
8
BLACK
6
CONTINUOUS
10
184.788
20
-68.7612
11
184.788
21
-68.1956
0
LINE
8
BLACK
6
CONTINUOUS
10
184.788
20
-68.1956
11
184.223
21
-68.1956
0
LINE
8
BLACK
6
CONTINUOUS
10
184.223
20
-68.1956
11
184.223
21
-68.7612
0
LINE
8
BLACK
6
CONTINUOUS
10
184.223
20
-68.7612
11
184.788
21
-68.7612
0
LINE
8
BLACK
6
CONTINUOUS
10
185.703
20
-98.8348
11
185.703
21
-98.2692
0
LINE
8
BLACK
6
CONTINUOUS
10
185.703
20
-98.2692
11
185.137
21
-98.2692
0
LINE
8
BLACK
6
CONTINUOUS
10
185.137
20
-98.2692
11
185.137
21
-98.8348
0
LINE
8
BLACK
6
CONTINUOUS
10
185.137
20
-98.8348
11
185.703
21
-98.8348
0
LINE
8
BLACK
6
CONTINUOUS
10
185.703
20
-101.335
11
185.703
21
-100.769
0
LINE
8
BLACK
6
CONTINUOUS
10
185.703
20
-100.769
11
185.137
21
-100.769
0
LINE
8
BLACK
6
CONTINUOUS
10
185.137
20
-100.769
11
185.137
21
-101.335
0
LINE
8
BLACK
6
CONTINUOUS
10
185.137
20
-101.335
11
185.703
21
-101.335
0
LINE
8
BLACK
6
CONTINUOUS
10
189.508
20
-68.6388
11
189.508
21
-68.0732
0
LINE
8
BLACK
6
CONTINUOUS
10
189.508
20
-68.0732
11
188.942
21
-68.0732
0
LINE
8
BLACK
6
CONTINUOUS
10
188.942
20
-68.0732
11
188.942
21
-68.6388
0
LINE
8
BLACK
6
CONTINUOUS
10
188.942
20
-68.6388
11
189.508
21
-68.6388
0
LINE
8
BLACK
6
CONTINUOUS
10
189.508
20
-71.1388
11
189.508
21
-70.5732
0
LINE
8
BLACK
6
CONTINUOUS
10
189.508
20
-70.5732
11
188.942
21
-70.5732
0
LINE
8
BLACK
6
CONTINUOUS
10
188.942
20
-70.5732
11
188.942
21
-71.1388
0
LINE
8
BLACK
6
CONTINUOUS
10
188.942
20
-71.1388
11
189.508
21
-71.1388
0
LINE
8
BLACK
6
CONTINUOUS
10
189.508
20
-85.1488
11
189.508
21
-84.5832
0
LINE
8
BLACK
6
CONTINUOUS
10
189.508
20
-84.5832
11
188.942
21
-84.5832
0
LINE
8
BLACK
6
CONTINUOUS
10
188.942
20
-84.5832
11
188.942
21
-85.1488
0
LINE
8
BLACK
6
CONTINUOUS
10
188.942
20
-85.1488
11
189.508
21
-85.1488
0
LINE
8
BLACK
6
CONTINUOUS
10
189.508
20
-87.6488
11
189.508
21
-87.0832
0
LINE
8
BLACK
6
CONTINUOUS
10
189.508
20
-87.0832
11
188.942
21
-87.0832
0
LINE
8
BLACK
6
CONTINUOUS
10
188.942
20
-87.0832
11
188.942
21
-87.6488
0
LINE
8
BLACK
6
CONTINUOUS
10
188.942
20
-87.6488
11
189.508
21
-87.6488
0
LINE
8
BLACK
6
CONTINUOUS
10
190.58
20
-116.275
11
190.58
21
-115.709
0
LINE
8
BLACK
6
CONTINUOUS
10
190.58
20
-115.709
11
190.014
21
-115.709
0
LINE
8
BLACK
6
CONTINUOUS
10
190.014
20
-115.709
11
190.014
21
-116.275
0
LINE
8
BLACK
6
CONTINUOUS
10
190.014
20
-116.275
11
190.58
21
-116.275
0
LINE
8
BLACK
6
CONTINUOUS
10
190.58
20
-118.275
11
190.58
21
-117.709
0
LINE
8
BLACK
6
CONTINUOUS
10
190.58
20
-117.709
11
190.014
21
-117.709
0
LINE
8
BLACK
6
CONTINUOUS
10
190.014
20
-117.709
11
190.014
21
-118.275
0
LINE
8
BLACK
6
CONTINUOUS
10
190.014
20
-118.275
11
190.58
21
-118.275
0
LINE
8
BLACK
6
CONTINUOUS
10
190.58
20
-120.275
11
190.58
21
-119.709
0
LINE
8
BLACK
6
CONTINUOUS
10
190.58
20
-119.709
11
190.014
21
-119.709
0
LINE
8
BLACK
6
CONTINUOUS
10
190.014
20
-119.709
11
190.014
21
-120.275
0
LINE
8
BLACK
6
CONTINUOUS
10
190.014
20
-120.275
11
190.58
21
-120.275
0
LINE
8
BLACK
6
CONTINUOUS
10
192.81
20
-66.0588
11
192.81
21
-65.4932
0
LINE
8
BLACK
6
CONTINUOUS
10
192.81
20
-65.4932
11
192.244
21
-65.4932
0
LINE
8
BLACK
6
CONTINUOUS
10
192.244
20
-65.4932
11
192.244
21
-66.0588
0
LINE
8
BLACK
6
CONTINUOUS
10
192.244
20
-66.0588
11
192.81
21
-66.0588
0
LINE
8
BLACK
6
CONTINUOUS
10
192.81
20
-73.6788
11
192.81
21
-73.1132
0
LINE
8
BLACK
6
CONTINUOUS
10
192.81
20
-73.1132
11
192.244
21
-73.1132
0
LINE
8
BLACK
6
CONTINUOUS
10
192.244
20
-73.1132
11
192.244
21
-73.6788
0
LINE
8
BLACK
6
CONTINUOUS
10
192.244
20
-73.6788
11
192.81
21
-73.6788
0
LINE
8
BLACK
6
CONTINUOUS
10
192.81
20
-82.5688
11
192.81
21
-82.0032
0
LINE
8
BLACK
6
CONTINUOUS
10
192.81
20
-82.0032
11
192.244
21
-82.0032
0
LINE
8
BLACK
6
CONTINUOUS
10
192.244
20
-82.0032
11
192.244
21
-82.5688
0
LINE
8
BLACK
6
CONTINUOUS
10
192.244
20
-82.5688
11
192.81
21
-82.5688
0
LINE
8
BLACK
6
CONTINUOUS
10
192.81
20
-90.1888
11
192.81
21
-89.6232
0
LINE
8
BLACK
6
CONTINUOUS
10
192.81
20
-89.6232
11
192.244
21
-89.6232
0
LINE
8
BLACK
6
CONTINUOUS
10
192.244
20
-89.6232
11
192.244
21
-90.1888
0
LINE
8
BLACK
6
CONTINUOUS
10
192.244
20
-90.1888
11
192.81
21
-90.1888
0
LINE
8
BLACK
6
CONTINUOUS
10
193.58
20
-116.275
11
193.58
21
-115.709
0
LINE
8
BLACK
6
CONTINUOUS
10
193.58
20
-115.709
11
193.014
21
-115.709
0
LINE
8
BLACK
6
CONTINUOUS
10
193.014
20
-115.709
11
193.014
21
-116.275
0
LINE
8
BLACK
6
CONTINUOUS
10
193.014
20
-116.275
11
193.58
21
-116.275
0
LINE
8
BLACK
6
CONTINUOUS
10
193.58
20
-118.275
11
193.58
21
-117.709
0
LINE
8
BLACK
6
CONTINUOUS
10
193.58
20
-117.709
11
193.014
21
-117.709
0
LINE
8
BLACK
6
CONTINUOUS
10
193.014
20
-117.709
11
193.014
21
-118.275
0
LINE
8
BLACK
6
CONTINUOUS
10
193.014
20
-118.275
11
193.58
21
-118.275
0
LINE
8
BLACK
6
CONTINUOUS
10
193.58
20
-120.275
11
193.58
21
-119.709
0
LINE
8
BLACK
6
CONTINUOUS
10
193.58
20
-119.709
11
193.014
21
-119.709
0
LINE
8
BLACK
6
CONTINUOUS
10
193.014
20
-119.709
11
193.014
21
-120.275
0
LINE
8
BLACK
6
CONTINUOUS
10
193.014
20
-120.275
11
193.58
21
-120.275
0
LINE
8
BLACK
6
CONTINUOUS
10
194.968
20
-128.807
11
194.968
21
-128.241
0
LINE
8
BLACK
6
CONTINUOUS
10
194.968
20
-128.241
11
194.403
21
-128.241
0
LINE
8
BLACK
6
CONTINUOUS
10
194.403
20
-128.241
11
194.403
21
-128.807
0
LINE
8
BLACK
6
CONTINUOUS
10
194.403
20
-128.807
11
194.968
21
-128.807
0
LINE
8
BLACK
6
CONTINUOUS
10
195.35
20
-66.0588
11
195.35
21
-65.4932
0
LINE
8
BLACK
6
CONTINUOUS
10
195.35
20
-65.4932
11
194.784
21
-65.4932
0
LINE
8
BLACK
6
CONTINUOUS
10
194.784
20
-65.4932
11
194.784
21
-66.0588
0
LINE
8
BLACK
6
CONTINUOUS
10
194.784
20
-66.0588
11
195.35
21
-66.0588
0
LINE
8
BLACK
6
CONTINUOUS
10
195.35
20
-73.6788
11
195.35
21
-73.1132
0
LINE
8
BLACK
6
CONTINUOUS
10
195.35
20
-73.1132
11
194.784
21
-73.1132
0
LINE
8
BLACK
6
CONTINUOUS
10
194.784
20
-73.1132
11
194.784
21
-73.6788
0
LINE
8
BLACK
6
CONTINUOUS
10
194.784
20
-73.6788
11
195.35
21
-73.6788
0
LINE
8
BLACK
6
CONTINUOUS
10
195.35
20
-82.5688
11
195.35
21
-82.0032
0
LINE
8
BLACK
6
CONTINUOUS
10
195.35
20
-82.0032
11
194.784
21
-82.0032
0
LINE
8
BLACK
6
CONTINUOUS
10
194.784
20
-82.0032
11
194.784
21
-82.5688
0
LINE
8
BLACK
6
CONTINUOUS
10
194.784
20
-82.5688
11
195.35
21
-82.5688
0
LINE
8
BLACK
6
CONTINUOUS
10
195.35
20
-90.1888
11
195.35
21
-89.6232
0
LINE
8
BLACK
6
CONTINUOUS
10
195.35
20
-89.6232
11
194.784
21
-89.6232
0
LINE
8
BLACK
6
CONTINUOUS
10
194.784
20
-89.6232
11
194.784
21
-90.1888
0
LINE
8
BLACK
6
CONTINUOUS
10
194.784
20
-90.1888
11
195.35
21
-90.1888
0
LINE
8
BLACK
6
CONTINUOUS
10
196.574
20
-116.272
11
196.574
21
-115.707
0
LINE
8
BLACK
6
CONTINUOUS
10
196.574
20
-115.707
11
196.008
21
-115.707
0
LINE
8
BLACK
6
CONTINUOUS
10
196.008
20
-115.707
11
196.008
21
-116.272
0
LINE
8
BLACK
6
CONTINUOUS
10
196.008
20
-116.272
11
196.574
21
-116.272
0
LINE
8
BLACK
6
CONTINUOUS
10
196.574
20
-118.272
11
196.574
21
-117.707
0
LINE
8
BLACK
6
CONTINUOUS
10
196.574
20
-117.707
11
196.008
21
-117.707
0
LINE
8
BLACK
6
CONTINUOUS
10
196.008
20
-117.707
11
196.008
21
-118.272
0
LINE
8
BLACK
6
CONTINUOUS
10
196.008
20
-118.272
11
196.574
21
-118.272
0
LINE
8
BLACK
6
CONTINUOUS
10
196.574
20
-120.272
11
196.574
21
-119.707
0
LINE
8
BLACK
6
CONTINUOUS
10
196.574
20
-119.707
11
196.008
21
-119.707
0
LINE
8
BLACK
6
CONTINUOUS
10
196.008
20
-119.707
11
196.008
21
-120.272
0
LINE
8
BLACK
6
CONTINUOUS
10
196.008
20
-120.272
11
196.574
21
-120.272
0
LINE
8
BLACK
6
CONTINUOUS
10
197.468
20
-128.807
11
197.468
21
-128.241
0
LINE
8
BLACK
6
CONTINUOUS
10
197.468
20
-128.241
11
196.903
21
-128.241
0
LINE
8
BLACK
6
CONTINUOUS
10
196.903
20
-128.241
11
196.903
21
-128.807
0
LINE
8
BLACK
6
CONTINUOUS
10
196.903
20
-128.807
11
197.468
21
-128.807
0
LINE
8
BLACK
6
CONTINUOUS
10
197.89
20
-66.0588
11
197.89
21
-65.4932
0
LINE
8
BLACK
6
CONTINUOUS
10
197.89
20
-65.4932
11
197.324
21
-65.4932
0
LINE
8
BLACK
6
CONTINUOUS
10
197.324
20
-65.4932
11
197.324
21
-66.0588
0
LINE
8
BLACK
6
CONTINUOUS
10
197.324
20
-66.0588
11
197.89
21
-66.0588
0
LINE
8
BLACK
6
CONTINUOUS
10
197.89
20
-73.6788
11
197.89
21
-73.1132
0
LINE
8
BLACK
6
CONTINUOUS
10
197.89
20
-73.1132
11
197.324
21
-73.1132
0
LINE
8
BLACK
6
CONTINUOUS
10
197.324
20
-73.1132
11
197.324
21
-73.6788
0
LINE
8
BLACK
6
CONTINUOUS
10
197.324
20
-73.6788
11
197.89
21
-73.6788
0
LINE
8
BLACK
6
CONTINUOUS
10
197.89
20
-82.5688
11
197.89
21
-82.0032
0
LINE
8
BLACK
6
CONTINUOUS
10
197.89
20
-82.0032
11
197.324
21
-82.0032
0
LINE
8
BLACK
6
CONTINUOUS
10
197.324
20
-82.0032
11
197.324
21
-82.5688
0
LINE
8
BLACK
6
CONTINUOUS
10
197.324
20
-82.5688
11
197.89
21
-82.5688
0
LINE
8
BLACK
6
CONTINUOUS
10
197.89
20
-90.1888
11
197.89
21
-89.6232
0
LINE
8
BLACK
6
CONTINUOUS
10
197.89
20
-89.6232
11
197.324
21
-89.6232
0
LINE
8
BLACK
6
CONTINUOUS
10
197.324
20
-89.6232
11
197.324
21
-90.1888
0
LINE
8
BLACK
6
CONTINUOUS
10
197.324
20
-90.1888
11
197.89
21
-90.1888
0
LINE
8
BLACK
6
CONTINUOUS
10
200.43
20
-66.0588
11
200.43
21
-65.4932
0
LINE
8
BLACK
6
CONTINUOUS
10
200.43
20
-65.4932
11
199.864
21
-65.4932
0
LINE
8
BLACK
6
CONTINUOUS
10
199.864
20
-65.4932
11
199.864
21
-66.0588
0
LINE
8
BLACK
6
CONTINUOUS
10
199.864
20
-66.0588
11
200.43
21
-66.0588
0
LINE
8
BLACK
6
CONTINUOUS
10
200.43
20
-73.6788
11
200.43
21
-73.1132
0
LINE
8
BLACK
6
CONTINUOUS
10
200.43
20
-73.1132
11
199.864
21
-73.1132
0
LINE
8
BLACK
6
CONTINUOUS
10
199.864
20
-73.1132
11
199.864
21
-73.6788
0
LINE
8
BLACK
6
CONTINUOUS
10
199.864
20
-73.6788
11
200.43
21
-73.6788
0
LINE
8
BLACK
6
CONTINUOUS
10
200.43
20
-82.5688
11
200.43
21
-82.0032
0
LINE
8
BLACK
6
CONTINUOUS
10
200.43
20
-82.0032
11
199.864
21
-82.0032
0
LINE
8
BLACK
6
CONTINUOUS
10
199.864
20
-82.0032
11
199.864
21
-82.5688
0
LINE
8
BLACK
6
CONTINUOUS
10
199.864
20
-82.5688
11
200.43
21
-82.5688
0
LINE
8
BLACK
6
CONTINUOUS
10
200.43
20
-90.1888
11
200.43
21
-89.6232
0
LINE
8
BLACK
6
CONTINUOUS
10
200.43
20
-89.6232
11
199.864
21
-89.6232
0
LINE
8
BLACK
6
CONTINUOUS
10
199.864
20
-89.6232
11
199.864
21
-90.1888
0
LINE
8
BLACK
6
CONTINUOUS
10
199.864
20
-90.1888
11
200.43
21
-90.1888
0
LINE
8
BLACK
6
CONTINUOUS
10
202.97
20
-66.0588
11
202.97
21
-65.4932
0
LINE
8
BLACK
6
CONTINUOUS
10
202.97
20
-65.4932
11
202.404
21
-65.4932
0
LINE
8
BLACK
6
CONTINUOUS
10
202.404
20
-65.4932
11
202.404
21
-66.0588
0
LINE
8
BLACK
6
CONTINUOUS
10
202.404
20
-66.0588
11
202.97
21
-66.0588
0
LINE
8
BLACK
6
CONTINUOUS
10
202.97
20
-73.6788
11
202.97
21
-73.1132
0
LINE
8
BLACK
6
CONTINUOUS
10
202.97
20
-73.1132
11
202.404
21
-73.1132
0
LINE
8
BLACK
6
CONTINUOUS
10
202.404
20
-73.1132
11
202.404
21
-73.6788
0
LINE
8
BLACK
6
CONTINUOUS
10
202.404
20
-73.6788
11
202.97
21
-73.6788
0
LINE
8
BLACK
6
CONTINUOUS
10
202.97
20
-82.5688
11
202.97
21
-82.0032
0
LINE
8
BLACK
6
CONTINUOUS
10
202.97
20
-82.0032
11
202.404
21
-82.0032
0
LINE
8
BLACK
6
CONTINUOUS
10
202.404
20
-82.0032
11
202.404
21
-82.5688
0
LINE
8
BLACK
6
CONTINUOUS
10
202.404
20
-82.5688
11
202.97
21
-82.5688
0
LINE
8
BLACK
6
CONTINUOUS
10
202.97
20
-90.1888
11
202.97
21
-89.6232
0
LINE
8
BLACK
6
CONTINUOUS
10
202.97
20
-89.6232
11
202.404
21
-89.6232
0
LINE
8
BLACK
6
CONTINUOUS
10
202.404
20
-89.6232
11
202.404
21
-90.1888
0
LINE
8
BLACK
6
CONTINUOUS
10
202.404
20
-90.1888
11
202.97
21
-90.1888
0
LINE
8
BLACK
6
CONTINUOUS
10
203.554
20
-129.061
11
203.554
21
-128.495
0
LINE
8
BLACK
6
CONTINUOUS
10
203.554
20
-128.495
11
202.988
21
-128.495
0
LINE
8
BLACK
6
CONTINUOUS
10
202.988
20
-128.495
11
202.988
21
-129.061
0
LINE
8
BLACK
6
CONTINUOUS
10
202.988
20
-129.061
11
203.554
21
-129.061
0
LINE
8
BLACK
6
CONTINUOUS
10
205.51
20
-66.0588
11
205.51
21
-65.4932
0
LINE
8
BLACK
6
CONTINUOUS
10
205.51
20
-65.4932
11
204.944
21
-65.4932
0
LINE
8
BLACK
6
CONTINUOUS
10
204.944
20
-65.4932
11
204.944
21
-66.0588
0
LINE
8
BLACK
6
CONTINUOUS
10
204.944
20
-66.0588
11
205.51
21
-66.0588
0
LINE
8
BLACK
6
CONTINUOUS
10
205.51
20
-73.6788
11
205.51
21
-73.1132
0
LINE
8
BLACK
6
CONTINUOUS
10
205.51
20
-73.1132
11
204.944
21
-73.1132
0
LINE
8
BLACK
6
CONTINUOUS
10
204.944
20
-73.1132
11
204.944
21
-73.6788
0
LINE
8
BLACK
6
CONTINUOUS
10
204.944
20
-73.6788
11
205.51
21
-73.6788
0
LINE
8
BLACK
6
CONTINUOUS
10
205.51
20
-82.5688
11
205.51
21
-82.0032
0
LINE
8
BLACK
6
CONTINUOUS
10
205.51
20
-82.0032
11
204.944
21
-82.0032
0
LINE
8
BLACK
6
CONTINUOUS
10
204.944
20
-82.0032
11
204.944
21
-82.5688
0
LINE
8
BLACK
6
CONTINUOUS
10
204.944
20
-82.5688
11
205.51
21
-82.5688
0
LINE
8
BLACK
6
CONTINUOUS
10
205.51
20
-90.1888
11
205.51
21
-89.6232
0
LINE
8
BLACK
6
CONTINUOUS
10
205.51
20
-89.6232
11
204.944
21
-89.6232
0
LINE
8
BLACK
6
CONTINUOUS
10
204.944
20
-89.6232
11
204.944
21
-90.1888
0
LINE
8
BLACK
6
CONTINUOUS
10
204.944
20
-90.1888
11
205.51
21
-90.1888
0
LINE
8
BLACK
6
CONTINUOUS
10
206.054
20
-129.061
11
206.054
21
-128.495
0
LINE
8
BLACK
6
CONTINUOUS
10
206.054
20
-128.495
11
205.488
21
-128.495
0
LINE
8
BLACK
6
CONTINUOUS
10
205.488
20
-128.495
11
205.488
21
-129.061
0
LINE
8
BLACK
6
CONTINUOUS
10
205.488
20
-129.061
11
206.054
21
-129.061
0
LINE
8
BLACK
6
CONTINUOUS
10
208.05
20
-66.0588
11
208.05
21
-65.4932
0
LINE
8
BLACK
6
CONTINUOUS
10
208.05
20
-65.4932
11
207.484
21
-65.4932
0
LINE
8
BLACK
6
CONTINUOUS
10
207.484
20
-65.4932
11
207.484
21
-66.0588
0
LINE
8
BLACK
6
CONTINUOUS
10
207.484
20
-66.0588
11
208.05
21
-66.0588
0
LINE
8
BLACK
6
CONTINUOUS
10
208.05
20
-73.6788
11
208.05
21
-73.1132
0
LINE
8
BLACK
6
CONTINUOUS
10
208.05
20
-73.1132
11
207.484
21
-73.1132
0
LINE
8
BLACK
6
CONTINUOUS
10
207.484
20
-73.1132
11
207.484
21
-73.6788
0
LINE
8
BLACK
6
CONTINUOUS
10
207.484
20
-73.6788
11
208.05
21
-73.6788
0
LINE
8
BLACK
6
CONTINUOUS
10
208.05
20
-82.5688
11
208.05
21
-82.0032
0
LINE
8
BLACK
6
CONTINUOUS
10
208.05
20
-82.0032
11
207.484
21
-82.0032
0
LINE
8
BLACK
6
CONTINUOUS
10
207.484
20
-82.0032
11
207.484
21
-82.5688
0
LINE
8
BLACK
6
CONTINUOUS
10
207.484
20
-82.5688
11
208.05
21
-82.5688
0
LINE
8
BLACK
6
CONTINUOUS
10
208.05
20
-90.1888
11
208.05
21
-89.6232
0
LINE
8
BLACK
6
CONTINUOUS
10
208.05
20
-89.6232
11
207.484
21
-89.6232
0
LINE
8
BLACK
6
CONTINUOUS
10
207.484
20
-89.6232
11
207.484
21
-90.1888
0
LINE
8
BLACK
6
CONTINUOUS
10
207.484
20
-90.1888
11
208.05
21
-90.1888
0
LINE
8
BLACK
6
CONTINUOUS
10
113.091
20
-52.119
11
113.591
21
-51.619
0
LINE
8
BLACK
6
CONTINUOUS
10
113.591
20
-51.619
11
113.091
21
-51.119
0
LINE
8
BLACK
6
CONTINUOUS
10
113.091
20
-51.119
11
112.591
21
-51.619
0
LINE
8
BLACK
6
CONTINUOUS
10
112.591
20
-51.619
11
113.091
21
-52.119
0
LINE
8
BLACK
6
CONTINUOUS
10
115.631
20
-52.119
11
116.131
21
-51.619
0
LINE
8
BLACK
6
CONTINUOUS
10
116.131
20
-51.619
11
115.631
21
-51.119
0
LINE
8
BLACK
6
CONTINUOUS
10
115.631
20
-51.119
11
115.131
21
-51.619
0
LINE
8
BLACK
6
CONTINUOUS
10
115.131
20
-51.619
11
115.631
21
-52.119
0
LINE
8
BLACK
6
CONTINUOUS
10
118.171
20
-52.119
11
118.671
21
-51.619
0
LINE
8
BLACK
6
CONTINUOUS
10
118.671
20
-51.619
11
118.171
21
-51.119
0
LINE
8
BLACK
6
CONTINUOUS
10
118.171
20
-51.119
11
117.671
21
-51.619
0
LINE
8
BLACK
6
CONTINUOUS
10
117.671
20
-51.619
11
118.171
21
-52.119
0
LINE
8
BLACK
6
CONTINUOUS
10
120.711
20
-52.119
11
121.211
21
-51.619
0
LINE
8
BLACK
6
CONTINUOUS
10
121.211
20
-51.619
11
120.711
21
-51.119
0
LINE
8
BLACK
6
CONTINUOUS
10
120.711
20
-51.119
11
120.211
21
-51.619
0
LINE
8
BLACK
6
CONTINUOUS
10
120.211
20
-51.619
11
120.711
21
-52.119
0
LINE
8
BLACK
6
CONTINUOUS
10
137.16
20
-55.11
11
137.66
21
-54.61
0
LINE
8
BLACK
6
CONTINUOUS
10
137.66
20
-54.61
11
137.16
21
-54.11
0
LINE
8
BLACK
6
CONTINUOUS
10
137.16
20
-54.11
11
136.66
21
-54.61
0
LINE
8
BLACK
6
CONTINUOUS
10
136.66
20
-54.61
11
137.16
21
-55.11
0
LINE
8
BLACK
6
CONTINUOUS
10
137.16
20
-57.65
11
137.66
21
-57.15
0
LINE
8
BLACK
6
CONTINUOUS
10
137.66
20
-57.15
11
137.16
21
-56.65
0
LINE
8
BLACK
6
CONTINUOUS
10
137.16
20
-56.65
11
136.66
21
-57.15
0
LINE
8
BLACK
6
CONTINUOUS
10
136.66
20
-57.15
11
137.16
21
-57.65
0
LINE
8
BLACK
6
CONTINUOUS
10
139.7
20
-55.11
11
140.2
21
-54.61
0
LINE
8
BLACK
6
CONTINUOUS
10
140.2
20
-54.61
11
139.7
21
-54.11
0
LINE
8
BLACK
6
CONTINUOUS
10
139.7
20
-54.11
11
139.2
21
-54.61
0
LINE
8
BLACK
6
CONTINUOUS
10
139.2
20
-54.61
11
139.7
21
-55.11
0
LINE
8
BLACK
6
CONTINUOUS
10
139.7
20
-57.65
11
140.2
21
-57.15
0
LINE
8
BLACK
6
CONTINUOUS
10
140.2
20
-57.15
11
139.7
21
-56.65
0
LINE
8
BLACK
6
CONTINUOUS
10
139.7
20
-56.65
11
139.2
21
-57.15
0
LINE
8
BLACK
6
CONTINUOUS
10
139.2
20
-57.15
11
139.7
21
-57.65
0
LINE
8
BLACK
6
CONTINUOUS
10
142.24
20
-55.11
11
142.74
21
-54.61
0
LINE
8
BLACK
6
CONTINUOUS
10
142.74
20
-54.61
11
142.24
21
-54.11
0
LINE
8
BLACK
6
CONTINUOUS
10
142.24
20
-54.11
11
141.74
21
-54.61
0
LINE
8
BLACK
6
CONTINUOUS
10
141.74
20
-54.61
11
142.24
21
-55.11
0
LINE
8
BLACK
6
CONTINUOUS
10
142.24
20
-57.65
11
142.74
21
-57.15
0
LINE
8
BLACK
6
CONTINUOUS
10
142.74
20
-57.15
11
142.24
21
-56.65
0
LINE
8
BLACK
6
CONTINUOUS
10
142.24
20
-56.65
11
141.74
21
-57.15
0
LINE
8
BLACK
6
CONTINUOUS
10
141.74
20
-57.15
11
142.24
21
-57.65
0
LINE
8
BLACK
6
CONTINUOUS
10
144.78
20
-55.11
11
145.28
21
-54.61
0
LINE
8
BLACK
6
CONTINUOUS
10
145.28
20
-54.61
11
144.78
21
-54.11
0
LINE
8
BLACK
6
CONTINUOUS
10
144.78
20
-54.11
11
144.28
21
-54.61
0
LINE
8
BLACK
6
CONTINUOUS
10
144.28
20
-54.61
11
144.78
21
-55.11
0
LINE
8
BLACK
6
CONTINUOUS
10
144.78
20
-57.65
11
145.28
21
-57.15
0
LINE
8
BLACK
6
CONTINUOUS
10
145.28
20
-57.15
11
144.78
21
-56.65
0
LINE
8
BLACK
6
CONTINUOUS
10
144.78
20
-56.65
11
144.28
21
-57.15
0
LINE
8
BLACK
6
CONTINUOUS
10
144.28
20
-57.15
11
144.78
21
-57.65
0
LINE
8
BLACK
6
CONTINUOUS
10
147.32
20
-55.11
11
147.82
21
-54.61
0
LINE
8
BLACK
6
CONTINUOUS
10
147.82
20
-54.61
11
147.32
21
-54.11
0
LINE
8
BLACK
6
CONTINUOUS
10
147.32
20
-54.11
11
146.82
21
-54.61
0
LINE
8
BLACK
6
CONTINUOUS
10
146.82
20
-54.61
11
147.32
21
-55.11
0
LINE
8
BLACK
6
CONTINUOUS
10
147.32
20
-57.65
11
147.82
21
-57.15
0
LINE
8
BLACK
6
CONTINUOUS
10
147.82
20
-57.15
11
147.32
21
-56.65
0
LINE
8
BLACK
6
CONTINUOUS
10
147.32
20
-56.65
11
146.82
21
-57.15
0
LINE
8
BLACK
6
CONTINUOUS
10
146.82
20
-57.15
11
147.32
21
-57.65
0
LINE
8
BLACK
6
CONTINUOUS
10
149.86
20
-55.11
11
150.36
21
-54.61
0
LINE
8
BLACK
6
CONTINUOUS
10
150.36
20
-54.61
11
149.86
21
-54.11
0
LINE
8
BLACK
6
CONTINUOUS
10
149.86
20
-54.11
11
149.36
21
-54.61
0
LINE
8
BLACK
6
CONTINUOUS
10
149.36
20
-54.61
11
149.86
21
-55.11
0
LINE
8
BLACK
6
CONTINUOUS
10
149.86
20
-57.65
11
150.36
21
-57.15
0
LINE
8
BLACK
6
CONTINUOUS
10
150.36
20
-57.15
11
149.86
21
-56.65
0
LINE
8
BLACK
6
CONTINUOUS
10
149.86
20
-56.65
11
149.36
21
-57.15
0
LINE
8
BLACK
6
CONTINUOUS
10
149.36
20
-57.15
11
149.86
21
-57.65
0
LINE
8
BLACK
6
CONTINUOUS
10
152.4
20
-55.11
11
152.9
21
-54.61
0
LINE
8
BLACK
6
CONTINUOUS
10
152.9
20
-54.61
11
152.4
21
-54.11
0
LINE
8
BLACK
6
CONTINUOUS
10
152.4
20
-54.11
11
151.9
21
-54.61
0
LINE
8
BLACK
6
CONTINUOUS
10
151.9
20
-54.61
11
152.4
21
-55.11
0
LINE
8
BLACK
6
CONTINUOUS
10
152.4
20
-57.65
11
152.9
21
-57.15
0
LINE
8
BLACK
6
CONTINUOUS
10
152.9
20
-57.15
11
152.4
21
-56.65
0
LINE
8
BLACK
6
CONTINUOUS
10
152.4
20
-56.65
11
151.9
21
-57.15
0
LINE
8
BLACK
6
CONTINUOUS
10
151.9
20
-57.15
11
152.4
21
-57.65
0
LINE
8
BLACK
6
CONTINUOUS
10
154.94
20
-55.11
11
155.44
21
-54.61
0
LINE
8
BLACK
6
CONTINUOUS
10
155.44
20
-54.61
11
154.94
21
-54.11
0
LINE
8
BLACK
6
CONTINUOUS
10
154.94
20
-54.11
11
154.44
21
-54.61
0
LINE
8
BLACK
6
CONTINUOUS
10
154.44
20
-54.61
11
154.94
21
-55.11
0
LINE
8
BLACK
6
CONTINUOUS
10
154.94
20
-57.65
11
155.44
21
-57.15
0
LINE
8
BLACK
6
CONTINUOUS
10
155.44
20
-57.15
11
154.94
21
-56.65
0
LINE
8
BLACK
6
CONTINUOUS
10
154.94
20
-56.65
11
154.44
21
-57.15
0
LINE
8
BLACK
6
CONTINUOUS
10
154.44
20
-57.15
11
154.94
21
-57.65
0
LINE
8
BLACK
6
CONTINUOUS
10
157.48
20
-55.11
11
157.98
21
-54.61
0
LINE
8
BLACK
6
CONTINUOUS
10
157.98
20
-54.61
11
157.48
21
-54.11
0
LINE
8
BLACK
6
CONTINUOUS
10
157.48
20
-54.11
11
156.98
21
-54.61
0
LINE
8
BLACK
6
CONTINUOUS
10
156.98
20
-54.61
11
157.48
21
-55.11
0
LINE
8
BLACK
6
CONTINUOUS
10
157.48
20
-57.65
11
157.98
21
-57.15
0
LINE
8
BLACK
6
CONTINUOUS
10
157.98
20
-57.15
11
157.48
21
-56.65
0
LINE
8
BLACK
6
CONTINUOUS
10
157.48
20
-56.65
11
156.98
21
-57.15
0
LINE
8
BLACK
6
CONTINUOUS
10
156.98
20
-57.15
11
157.48
21
-57.65
0
LINE
8
BLACK
6
CONTINUOUS
10
160.02
20
-55.11
11
160.52
21
-54.61
0
LINE
8
BLACK
6
CONTINUOUS
10
160.52
20
-54.61
11
160.02
21
-54.11
0
LINE
8
BLACK
6
CONTINUOUS
10
160.02
20
-54.11
11
159.52
21
-54.61
0
LINE
8
BLACK
6
CONTINUOUS
10
159.52
20
-54.61
11
160.02
21
-55.11
0
LINE
8
BLACK
6
CONTINUOUS
10
160.02
20
-57.65
11
160.52
21
-57.15
0
LINE
8
BLACK
6
CONTINUOUS
10
160.52
20
-57.15
11
160.02
21
-56.65
0
LINE
8
BLACK
6
CONTINUOUS
10
160.02
20
-56.65
11
159.52
21
-57.15
0
LINE
8
BLACK
6
CONTINUOUS
10
159.52
20
-57.15
11
160.02
21
-57.65
0
LINE
8
BLACK
6
CONTINUOUS
10
162.56
20
-55.11
11
163.06
21
-54.61
0
LINE
8
BLACK
6
CONTINUOUS
10
163.06
20
-54.61
11
162.56
21
-54.11
0
LINE
8
BLACK
6
CONTINUOUS
10
162.56
20
-54.11
11
162.06
21
-54.61
0
LINE
8
BLACK
6
CONTINUOUS
10
162.06
20
-54.61
11
162.56
21
-55.11
0
LINE
8
BLACK
6
CONTINUOUS
10
162.56
20
-57.65
11
163.06
21
-57.15
0
LINE
8
BLACK
6
CONTINUOUS
10
163.06
20
-57.15
11
162.56
21
-56.65
0
LINE
8
BLACK
6
CONTINUOUS
10
162.56
20
-56.65
11
162.06
21
-57.15
0
LINE
8
BLACK
6
CONTINUOUS
10
162.06
20
-57.15
11
162.56
21
-57.65
0
LINE
8
BLACK
6
CONTINUOUS
10
165.1
20
-55.11
11
165.6
21
-54.61
0
LINE
8
BLACK
6
CONTINUOUS
10
165.6
20
-54.61
11
165.1
21
-54.11
0
LINE
8
BLACK
6
CONTINUOUS
10
165.1
20
-54.11
11
164.6
21
-54.61
0
LINE
8
BLACK
6
CONTINUOUS
10
164.6
20
-54.61
11
165.1
21
-55.11
0
LINE
8
BLACK
6
CONTINUOUS
10
165.1
20
-57.65
11
165.6
21
-57.15
0
LINE
8
BLACK
6
CONTINUOUS
10
165.6
20
-57.15
11
165.1
21
-56.65
0
LINE
8
BLACK
6
CONTINUOUS
10
165.1
20
-56.65
11
164.6
21
-57.15
0
LINE
8
BLACK
6
CONTINUOUS
10
164.6
20
-57.15
11
165.1
21
-57.65
0
LINE
8
BLACK
6
CONTINUOUS
10
167.64
20
-55.11
11
168.14
21
-54.61
0
LINE
8
BLACK
6
CONTINUOUS
10
168.14
20
-54.61
11
167.64
21
-54.11
0
LINE
8
BLACK
6
CONTINUOUS
10
167.64
20
-54.11
11
167.14
21
-54.61
0
LINE
8
BLACK
6
CONTINUOUS
10
167.14
20
-54.61
11
167.64
21
-55.11
0
LINE
8
BLACK
6
CONTINUOUS
10
167.64
20
-57.65
11
168.14
21
-57.15
0
LINE
8
BLACK
6
CONTINUOUS
10
168.14
20
-57.15
11
167.64
21
-56.65
0
LINE
8
BLACK
6
CONTINUOUS
10
167.64
20
-56.65
11
167.14
21
-57.15
0
LINE
8
BLACK
6
CONTINUOUS
10
167.14
20
-57.15
11
167.64
21
-57.65
0
LINE
8
BLACK
6
CONTINUOUS
10
170.18
20
-55.11
11
170.68
21
-54.61
0
LINE
8
BLACK
6
CONTINUOUS
10
170.68
20
-54.61
11
170.18
21
-54.11
0
LINE
8
BLACK
6
CONTINUOUS
10
170.18
20
-54.11
11
169.68
21
-54.61
0
LINE
8
BLACK
6
CONTINUOUS
10
169.68
20
-54.61
11
170.18
21
-55.11
0
LINE
8
BLACK
6
CONTINUOUS
10
170.18
20
-57.65
11
170.68
21
-57.15
0
LINE
8
BLACK
6
CONTINUOUS
10
170.68
20
-57.15
11
170.18
21
-56.65
0
LINE
8
BLACK
6
CONTINUOUS
10
170.18
20
-56.65
11
169.68
21
-57.15
0
LINE
8
BLACK
6
CONTINUOUS
10
169.68
20
-57.15
11
170.18
21
-57.65
0
LINE
8
BLACK
6
CONTINUOUS
10
172.72
20
-55.11
11
173.22
21
-54.61
0
LINE
8
BLACK
6
CONTINUOUS
10
173.22
20
-54.61
11
172.72
21
-54.11
0
LINE
8
BLACK
6
CONTINUOUS
10
172.72
20
-54.11
11
172.22
21
-54.61
0
LINE
8
BLACK
6
CONTINUOUS
10
172.22
20
-54.61
11
172.72
21
-55.11
0
LINE
8
BLACK
6
CONTINUOUS
10
172.72
20
-57.65
11
173.22
21
-57.15
0
LINE
8
BLACK
6
CONTINUOUS
10
173.22
20
-57.15
11
172.72
21
-56.65
0
LINE
8
BLACK
6
CONTINUOUS
10
172.72
20
-56.65
11
172.22
21
-57.15
0
LINE
8
BLACK
6
CONTINUOUS
10
172.22
20
-57.15
11
172.72
21
-57.65
0
LINE
8
BLACK
6
CONTINUOUS
10
175.26
20
-55.11
11
175.76
21
-54.61
0
LINE
8
BLACK
6
CONTINUOUS
10
175.76
20
-54.61
11
175.26
21
-54.11
0
LINE
8
BLACK
6
CONTINUOUS
10
175.26
20
-54.11
11
174.76
21
-54.61
0
LINE
8
BLACK
6
CONTINUOUS
10
174.76
20
-54.61
11
175.26
21
-55.11
0
LINE
8
BLACK
6
CONTINUOUS
10
175.26
20
-57.65
11
175.76
21
-57.15
0
LINE
8
BLACK
6
CONTINUOUS
10
175.76
20
-57.15
11
175.26
21
-56.65
0
LINE
8
BLACK
6
CONTINUOUS
10
175.26
20
-56.65
11
174.76
21
-57.15
0
LINE
8
BLACK
6
CONTINUOUS
10
174.76
20
-57.15
11
175.26
21
-57.65
0
LINE
8
BLACK
6
CONTINUOUS
10
177.8
20
-55.11
11
178.3
21
-54.61
0
LINE
8
BLACK
6
CONTINUOUS
10
178.3
20
-54.61
11
177.8
21
-54.11
0
LINE
8
BLACK
6
CONTINUOUS
10
177.8
20
-54.11
11
177.3
21
-54.61
0
LINE
8
BLACK
6
CONTINUOUS
10
177.3
20
-54.61
11
177.8
21
-55.11
0
LINE
8
BLACK
6
CONTINUOUS
10
177.8
20
-57.65
11
178.3
21
-57.15
0
LINE
8
BLACK
6
CONTINUOUS
10
178.3
20
-57.15
11
177.8
21
-56.65
0
LINE
8
BLACK
6
CONTINUOUS
10
177.8
20
-56.65
11
177.3
21
-57.15
0
LINE
8
BLACK
6
CONTINUOUS
10
177.3
20
-57.15
11
177.8
21
-57.65
0
LINE
8
BLACK
6
CONTINUOUS
10
209.804
20
-111.625
11
210.304
21
-111.125
0
LINE
8
BLACK
6
CONTINUOUS
10
210.304
20
-111.125
11
209.804
21
-110.625
0
LINE
8
BLACK
6
CONTINUOUS
10
209.804
20
-110.625
11
209.304
21
-111.125
0
LINE
8
BLACK
6
CONTINUOUS
10
209.304
20
-111.125
11
209.804
21
-111.625
0
LINE
8
BLACK
6
CONTINUOUS
10
209.804
20
-114.165
11
210.304
21
-113.665
0
LINE
8
BLACK
6
CONTINUOUS
10
210.304
20
-113.665
11
209.804
21
-113.165
0
LINE
8
BLACK
6
CONTINUOUS
10
209.804
20
-113.165
11
209.304
21
-113.665
0
LINE
8
BLACK
6
CONTINUOUS
10
209.304
20
-113.665
11
209.804
21
-114.165
0
LINE
8
BLACK
6
CONTINUOUS
10
209.804
20
-116.705
11
210.304
21
-116.205
0
LINE
8
BLACK
6
CONTINUOUS
10
210.304
20
-116.205
11
209.804
21
-115.705
0
LINE
8
BLACK
6
CONTINUOUS
10
209.804
20
-115.705
11
209.304
21
-116.205
0
LINE
8
BLACK
6
CONTINUOUS
10
209.304
20
-116.205
11
209.804
21
-116.705
0
LINE
8
BLACK
6
CONTINUOUS
10
209.804
20
-119.245
11
210.304
21
-118.745
0
LINE
8
BLACK
6
CONTINUOUS
10
210.304
20
-118.745
11
209.804
21
-118.245
0
LINE
8
BLACK
6
CONTINUOUS
10
209.804
20
-118.245
11
209.304
21
-118.745
0
LINE
8
BLACK
6
CONTINUOUS
10
209.304
20
-118.745
11
209.804
21
-119.245
0
LINE
8
BLACK
6
CONTINUOUS
10
209.804
20
-121.785
11
210.304
21
-121.285
0
LINE
8
BLACK
6
CONTINUOUS
10
210.304
20
-121.285
11
209.804
21
-120.785
0
LINE
8
BLACK
6
CONTINUOUS
10
209.804
20
-120.785
11
209.304
21
-121.285
0
LINE
8
BLACK
6
CONTINUOUS
10
209.304
20
-121.285
11
209.804
21
-121.785
0
LINE
8
BLACK
6
CONTINUOUS
10
212.344
20
-111.625
11
212.844
21
-111.125
0
LINE
8
BLACK
6
CONTINUOUS
10
212.844
20
-111.125
11
212.344
21
-110.625
0
LINE
8
BLACK
6
CONTINUOUS
10
212.344
20
-110.625
11
211.844
21
-111.125
0
LINE
8
BLACK
6
CONTINUOUS
10
211.844
20
-111.125
11
212.344
21
-111.625
0
LINE
8
BLACK
6
CONTINUOUS
10
212.344
20
-114.165
11
212.844
21
-113.665
0
LINE
8
BLACK
6
CONTINUOUS
10
212.844
20
-113.665
11
212.344
21
-113.165
0
LINE
8
BLACK
6
CONTINUOUS
10
212.344
20
-113.165
11
211.844
21
-113.665
0
LINE
8
BLACK
6
CONTINUOUS
10
211.844
20
-113.665
11
212.344
21
-114.165
0
LINE
8
BLACK
6
CONTINUOUS
10
212.344
20
-116.705
11
212.844
21
-116.205
0
LINE
8
BLACK
6
CONTINUOUS
10
212.844
20
-116.205
11
212.344
21
-115.705
0
LINE
8
BLACK
6
CONTINUOUS
10
212.344
20
-115.705
11
211.844
21
-116.205
0
LINE
8
BLACK
6
CONTINUOUS
10
211.844
20
-116.205
11
212.344
21
-116.705
0
LINE
8
BLACK
6
CONTINUOUS
10
212.344
20
-119.245
11
212.844
21
-118.745
0
LINE
8
BLACK
6
CONTINUOUS
10
212.844
20
-118.745
11
212.344
21
-118.245
0
LINE
8
BLACK
6
CONTINUOUS
10
212.344
20
-118.245
11
211.844
21
-118.745
0
LINE
8
BLACK
6
CONTINUOUS
10
211.844
20
-118.745
11
212.344
21
-119.245
0
LINE
8
BLACK
6
CONTINUOUS
10
212.344
20
-121.785
11
212.844
21
-121.285
0
LINE
8
BLACK
6
CONTINUOUS
10
212.844
20
-121.285
11
212.344
21
-120.785
0
LINE
8
BLACK
6
CONTINUOUS
10
212.344
20
-120.785
11
211.844
21
-121.285
0
LINE
8
BLACK
6
CONTINUOUS
10
211.844
20
-121.285
11
212.344
21
-121.785
0
LINE
8
BLACK
6
CONTINUOUS
10
102.79
20
-42.592
11
105.49
21
-45.292
0
LINE
8
BLACK
6
CONTINUOUS
10
105.49
20
-42.592
11
102.79
21
-45.292
0
CIRCLE
8
BLACK
10
104.14
20
-43.942
40
1.35
0
LINE
8
BLACK
6
CONTINUOUS
10
102.79
20
-129.714
11
105.49
21
-132.414
0
LINE
8
BLACK
6
CONTINUOUS
10
105.49
20
-129.714
11
102.79
21
-132.414
0
CIRCLE
8
BLACK
10
104.14
20
-131.064
40
1.35
0
LINE
8
BLACK
6
CONTINUOUS
10
210.486
20
-42.592
11
213.186
21
-45.292
0
LINE
8
BLACK
6
CONTINUOUS
10
213.186
20
-42.592
11
210.486
21
-45.292
0
CIRCLE
8
BLACK
10
211.836
20
-43.942
40
1.35
0
LINE
8
BLACK
6
CONTINUOUS
10
210.74
20
-129.714
11
213.44
21
-132.414
0
LINE
8
BLACK
6
CONTINUOUS
10
213.44
20
-129.714
11
210.74
21
-132.414
0
CIRCLE
8
BLACK
10
212.09
20
-131.064
40
1.35
0
LINE
8
BLACK
6
CONTINUOUS
10
102.451
20
-147.96
11
102.451
21
-145.96
0
LINE
8
BLACK
6
CONTINUOUS
10
102.451
20
-145.96
11
102.927
21
-145.96
0
LINE
8
BLACK
6
CONTINUOUS
10
102.927
20
-145.96
11
103.213
21
-146.055
0
LINE
8
BLACK
6
CONTINUOUS
10
103.213
20
-146.055
11
103.404
21
-146.245
0
LINE
8
BLACK
6
CONTINUOUS
10
103.404
20
-146.245
11
103.499
21
-146.436
0
LINE
8
BLACK
6
CONTINUOUS
10
103.499
20
-146.436
11
103.594
21
-146.817
0
LINE
8
BLACK
6
CONTINUOUS
10
103.594
20
-146.817
11
103.594
21
-147.103
0
LINE
8
BLACK
6
CONTINUOUS
10
103.594
20
-147.103
11
103.499
21
-147.484
0
LINE
8
BLACK
6
CONTINUOUS
10
103.499
20
-147.484
11
103.404
21
-147.674
0
LINE
8
BLACK
6
CONTINUOUS
10
103.404
20
-147.674
11
103.213
21
-147.865
0
LINE
8
BLACK
6
CONTINUOUS
10
103.213
20
-147.865
11
102.927
21
-147.96
0
LINE
8
BLACK
6
CONTINUOUS
10
102.927
20
-147.96
11
102.451
21
-147.96
0
LINE
8
BLACK
6
CONTINUOUS
10
104.451
20
-147.96
11
104.451
21
-146.626
0
LINE
8
BLACK
6
CONTINUOUS
10
104.451
20
-147.007
11
104.546
21
-146.817
0
LINE
8
BLACK
6
CONTINUOUS
10
104.546
20
-146.817
11
104.642
21
-146.722
0
LINE
8
BLACK
6
CONTINUOUS
10
104.642
20
-146.722
11
104.832
21
-146.626
0
LINE
8
BLACK
6
CONTINUOUS
10
104.832
20
-146.626
11
105.023
21
-146.626
0
LINE
8
BLACK
6
CONTINUOUS
10
105.689
20
-147.96
11
105.689
21
-146.626
0
LINE
8
BLACK
6
CONTINUOUS
10
105.689
20
-145.96
11
105.594
21
-146.055
0
LINE
8
BLACK
6
CONTINUOUS
10
105.594
20
-146.055
11
105.689
21
-146.15
0
LINE
8
BLACK
6
CONTINUOUS
10
105.689
20
-146.15
11
105.785
21
-146.055
0
LINE
8
BLACK
6
CONTINUOUS
10
105.785
20
-146.055
11
105.689
21
-145.96
0
LINE
8
BLACK
6
CONTINUOUS
10
105.689
20
-145.96
11
105.689
21
-146.15
0
LINE
8
BLACK
6
CONTINUOUS
10
106.927
20
-147.96
11
106.737
21
-147.865
0
LINE
8
BLACK
6
CONTINUOUS
10
106.737
20
-147.865
11
106.642
21
-147.674
0
LINE
8
BLACK
6
CONTINUOUS
10
106.642
20
-147.674
11
106.642
21
-145.96
0
LINE
8
BLACK
6
CONTINUOUS
10
107.975
20
-147.96
11
107.785
21
-147.865
0
LINE
8
BLACK
6
CONTINUOUS
10
107.785
20
-147.865
11
107.689
21
-147.674
0
LINE
8
BLACK
6
CONTINUOUS
10
107.689
20
-147.674
11
107.689
21
-145.96
0
LINE
8
BLACK
6
CONTINUOUS
10
109.937
20
-147.96
11
109.937
21
-145.96
0
LINE
8
BLACK
6
CONTINUOUS
10
109.937
20
-145.96
11
110.604
21
-147.388
0
LINE
8
BLACK
6
CONTINUOUS
10
110.604
20
-147.388
11
111.27
21
-145.96
0
LINE
8
BLACK
6
CONTINUOUS
10
111.27
20
-145.96
11
111.27
21
-147.96
0
LINE
8
BLACK
6
CONTINUOUS
10
113.08
20
-147.96
11
113.08
21
-146.912
0
LINE
8
BLACK
6
CONTINUOUS
10
113.08
20
-146.912
11
112.985
21
-146.722
0
LINE
8
BLACK
6
CONTINUOUS
10
112.985
20
-146.722
11
112.794
21
-146.626
0
LINE
8
BLACK
6
CONTINUOUS
10
112.794
20
-146.626
11
112.413
21
-146.626
0
LINE
8
BLACK
6
CONTINUOUS
10
112.413
20
-146.626
11
112.223
21
-146.722
0
LINE
8
BLACK
6
CONTINUOUS
10
113.08
20
-147.865
11
112.889
21
-147.96
0
LINE
8
BLACK
6
CONTINUOUS
10
112.889
20
-147.96
11
112.413
21
-147.96
0
LINE
8
BLACK
6
CONTINUOUS
10
112.413
20
-147.96
11
112.223
21
-147.865
0
LINE
8
BLACK
6
CONTINUOUS
10
112.223
20
-147.865
11
112.127
21
-147.674
0
LINE
8
BLACK
6
CONTINUOUS
10
112.127
20
-147.674
11
112.127
21
-147.484
0
LINE
8
BLACK
6
CONTINUOUS
10
112.127
20
-147.484
11
112.223
21
-147.293
0
LINE
8
BLACK
6
CONTINUOUS
10
112.223
20
-147.293
11
112.413
21
-147.198
0
LINE
8
BLACK
6
CONTINUOUS
10
112.413
20
-147.198
11
112.889
21
-147.198
0
LINE
8
BLACK
6
CONTINUOUS
10
112.889
20
-147.198
11
113.08
21
-147.103
0
LINE
8
BLACK
6
CONTINUOUS
10
114.032
20
-146.626
11
114.032
21
-148.626
0
LINE
8
BLACK
6
CONTINUOUS
10
114.032
20
-146.722
11
114.223
21
-146.626
0
LINE
8
BLACK
6
CONTINUOUS
10
114.223
20
-146.626
11
114.604
21
-146.626
0
LINE
8
BLACK
6
CONTINUOUS
10
114.604
20
-146.626
11
114.794
21
-146.722
0
LINE
8
BLACK
6
CONTINUOUS
10
114.794
20
-146.722
11
114.889
21
-146.817
0
LINE
8
BLACK
6
CONTINUOUS
10
114.889
20
-146.817
11
114.985
21
-147.007
0
LINE
8
BLACK
6
CONTINUOUS
10
114.985
20
-147.007
11
114.985
21
-147.579
0
LINE
8
BLACK
6
CONTINUOUS
10
114.985
20
-147.579
11
114.889
21
-147.769
0
LINE
8
BLACK
6
CONTINUOUS
10
114.889
20
-147.769
11
114.794
21
-147.865
0
LINE
8
BLACK
6
CONTINUOUS
10
114.794
20
-147.865
11
114.604
21
-147.96
0
LINE
8
BLACK
6
CONTINUOUS
10
114.604
20
-147.96
11
114.223
21
-147.96
0
LINE
8
BLACK
6
CONTINUOUS
10
114.223
20
-147.96
11
114.032
21
-147.865
0
LINE
8
BLACK
6
CONTINUOUS
10
115.842
20
-147.769
11
115.937
21
-147.865
0
LINE
8
BLACK
6
CONTINUOUS
10
115.937
20
-147.865
11
115.842
21
-147.96
0
LINE
8
BLACK
6
CONTINUOUS
10
115.842
20
-147.96
11
115.746
21
-147.865
0
LINE
8
BLACK
6
CONTINUOUS
10
115.746
20
-147.865
11
115.842
21
-147.769
0
LINE
8
BLACK
6
CONTINUOUS
10
115.842
20
-147.769
11
115.842
21
-147.96
0
LINE
8
BLACK
6
CONTINUOUS
10
115.842
20
-146.722
11
115.937
21
-146.817
0
LINE
8
BLACK
6
CONTINUOUS
10
115.937
20
-146.817
11
115.842
21
-146.912
0
LINE
8
BLACK
6
CONTINUOUS
10
115.842
20
-146.912
11
115.746
21
-146.817
0
LINE
8
BLACK
6
CONTINUOUS
10
115.746
20
-146.817
11
115.842
21
-146.722
0
LINE
8
BLACK
6
CONTINUOUS
10
115.842
20
-146.722
11
115.842
21
-146.912
0
LINE
8
BLACK
6
CONTINUOUS
10
99.575
20
-151.225
11
99.975
21
-151.625
0
LINE
8
BLACK
6
CONTINUOUS
10
99.975
20
-151.225
11
99.575
21
-151.625
0
LINE
8
BLACK
6
CONTINUOUS
10
102.832
20
-150.16
11
103.023
21
-150.16
0
LINE
8
BLACK
6
CONTINUOUS
10
103.023
20
-150.16
11
103.213
21
-150.255
0
LINE
8
BLACK
6
CONTINUOUS
10
103.213
20
-150.255
11
103.308
21
-150.35
0
LINE
8
BLACK
6
CONTINUOUS
10
103.308
20
-150.35
11
103.404
21
-150.541
0
LINE
8
BLACK
6
CONTINUOUS
10
103.404
20
-150.541
11
103.499
21
-150.922
0
LINE
8
BLACK
6
CONTINUOUS
10
103.499
20
-150.922
11
103.499
21
-151.398
0
LINE
8
BLACK
6
CONTINUOUS
10
103.499
20
-151.398
11
103.404
21
-151.779
0
LINE
8
BLACK
6
CONTINUOUS
10
103.404
20
-151.779
11
103.308
21
-151.969
0
LINE
8
BLACK
6
CONTINUOUS
10
103.308
20
-151.969
11
103.213
21
-152.065
0
LINE
8
BLACK
6
CONTINUOUS
10
103.213
20
-152.065
11
103.023
21
-152.16
0
LINE
8
BLACK
6
CONTINUOUS
10
103.023
20
-152.16
11
102.832
21
-152.16
0
LINE
8
BLACK
6
CONTINUOUS
10
102.832
20
-152.16
11
102.642
21
-152.065
0
LINE
8
BLACK
6
CONTINUOUS
10
102.642
20
-152.065
11
102.546
21
-151.969
0
LINE
8
BLACK
6
CONTINUOUS
10
102.546
20
-151.969
11
102.451
21
-151.779
0
LINE
8
BLACK
6
CONTINUOUS
10
102.451
20
-151.779
11
102.356
21
-151.398
0
LINE
8
BLACK
6
CONTINUOUS
10
102.356
20
-151.398
11
102.356
21
-150.922
0
LINE
8
BLACK
6
CONTINUOUS
10
102.356
20
-150.922
11
102.451
21
-150.541
0
LINE
8
BLACK
6
CONTINUOUS
10
102.451
20
-150.541
11
102.546
21
-150.35
0
LINE
8
BLACK
6
CONTINUOUS
10
102.546
20
-150.35
11
102.642
21
-150.255
0
LINE
8
BLACK
6
CONTINUOUS
10
102.642
20
-150.255
11
102.832
21
-150.16
0
LINE
8
BLACK
6
CONTINUOUS
10
104.356
20
-151.969
11
104.451
21
-152.065
0
LINE
8
BLACK
6
CONTINUOUS
10
104.451
20
-152.065
11
104.356
21
-152.16
0
LINE
8
BLACK
6
CONTINUOUS
10
104.356
20
-152.16
11
104.261
21
-152.065
0
LINE
8
BLACK
6
CONTINUOUS
10
104.261
20
-152.065
11
104.356
21
-151.969
0
LINE
8
BLACK
6
CONTINUOUS
10
104.356
20
-151.969
11
104.356
21
-152.16
0
LINE
8
BLACK
6
CONTINUOUS
10
106.165
20
-150.826
11
106.165
21
-152.16
0
LINE
8
BLACK
6
CONTINUOUS
10
105.689
20
-150.065
11
105.213
21
-151.493
0
LINE
8
BLACK
6
CONTINUOUS
10
105.213
20
-151.493
11
106.451
21
-151.493
0
LINE
8
BLACK
6
CONTINUOUS
10
107.594
20
-150.16
11
107.785
21
-150.16
0
LINE
8
BLACK
6
CONTINUOUS
10
107.785
20
-150.16
11
107.975
21
-150.255
0
LINE
8
BLACK
6
CONTINUOUS
10
107.975
20
-150.255
11
108.07
21
-150.35
0
LINE
8
BLACK
6
CONTINUOUS
10
108.07
20
-150.35
11
108.165
21
-150.541
0
LINE
8
BLACK
6
CONTINUOUS
10
108.165
20
-150.541
11
108.261
21
-150.922
0
LINE
8
BLACK
6
CONTINUOUS
10
108.261
20
-150.922
11
108.261
21
-151.398
0
LINE
8
BLACK
6
CONTINUOUS
10
108.261
20
-151.398
11
108.165
21
-151.779
0
LINE
8
BLACK
6
CONTINUOUS
10
108.165
20
-151.779
11
108.07
21
-151.969
0
LINE
8
BLACK
6
CONTINUOUS
10
108.07
20
-151.969
11
107.975
21
-152.065
0
LINE
8
BLACK
6
CONTINUOUS
10
107.975
20
-152.065
11
107.785
21
-152.16
0
LINE
8
BLACK
6
CONTINUOUS
10
107.785
20
-152.16
11
107.594
21
-152.16
0
LINE
8
BLACK
6
CONTINUOUS
10
107.594
20
-152.16
11
107.404
21
-152.065
0
LINE
8
BLACK
6
CONTINUOUS
10
107.404
20
-152.065
11
107.308
21
-151.969
0
LINE
8
BLACK
6
CONTINUOUS
10
107.308
20
-151.969
11
107.213
21
-151.779
0
LINE
8
BLACK
6
CONTINUOUS
10
107.213
20
-151.779
11
107.118
21
-151.398
0
LINE
8
BLACK
6
CONTINUOUS
10
107.118
20
-151.398
11
107.118
21
-150.922
0
LINE
8
BLACK
6
CONTINUOUS
10
107.118
20
-150.922
11
107.213
21
-150.541
0
LINE
8
BLACK
6
CONTINUOUS
10
107.213
20
-150.541
11
107.308
21
-150.35
0
LINE
8
BLACK
6
CONTINUOUS
10
107.308
20
-150.35
11
107.404
21
-150.255
0
LINE
8
BLACK
6
CONTINUOUS
10
107.404
20
-150.255
11
107.594
21
-150.16
0
LINE
8
BLACK
6
CONTINUOUS
10
109.499
20
-150.16
11
109.689
21
-150.16
0
LINE
8
BLACK
6
CONTINUOUS
10
109.689
20
-150.16
11
109.88
21
-150.255
0
LINE
8
BLACK
6
CONTINUOUS
10
109.88
20
-150.255
11
109.975
21
-150.35
0
LINE
8
BLACK
6
CONTINUOUS
10
109.975
20
-150.35
11
110.07
21
-150.541
0
LINE
8
BLACK
6
CONTINUOUS
10
110.07
20
-150.541
11
110.165
21
-150.922
0
LINE
8
BLACK
6
CONTINUOUS
10
110.165
20
-150.922
11
110.165
21
-151.398
0
LINE
8
BLACK
6
CONTINUOUS
10
110.165
20
-151.398
11
110.07
21
-151.779
0
LINE
8
BLACK
6
CONTINUOUS
10
110.07
20
-151.779
11
109.975
21
-151.969
0
LINE
8
BLACK
6
CONTINUOUS
10
109.975
20
-151.969
11
109.88
21
-152.065
0
LINE
8
BLACK
6
CONTINUOUS
10
109.88
20
-152.065
11
109.689
21
-152.16
0
LINE
8
BLACK
6
CONTINUOUS
10
109.689
20
-152.16
11
109.499
21
-152.16
0
LINE
8
BLACK
6
CONTINUOUS
10
109.499
20
-152.16
11
109.308
21
-152.065
0
LINE
8
BLACK
6
CONTINUOUS
10
109.308
20
-152.065
11
109.213
21
-151.969
0
LINE
8
BLACK
6
CONTINUOUS
10
109.213
20
-151.969
11
109.118
21
-151.779
0
LINE
8
BLACK
6
CONTINUOUS
10
109.118
20
-151.779
11
109.023
21
-151.398
0
LINE
8
BLACK
6
CONTINUOUS
10
109.023
20
-151.398
11
109.023
21
-150.922
0
LINE
8
BLACK
6
CONTINUOUS
10
109.023
20
-150.922
11
109.118
21
-150.541
0
LINE
8
BLACK
6
CONTINUOUS
10
109.118
20
-150.541
11
109.213
21
-150.35
0
LINE
8
BLACK
6
CONTINUOUS
10
109.213
20
-150.35
11
109.308
21
-150.255
0
LINE
8
BLACK
6
CONTINUOUS
10
109.308
20
-150.255
11
109.499
21
-150.16
0
LINE
8
BLACK
6
CONTINUOUS
10
111.023
20
-152.16
11
111.023
21
-150.826
0
LINE
8
BLACK
6
CONTINUOUS
10
111.023
20
-151.017
11
111.118
21
-150.922
0
LINE
8
BLACK
6
CONTINUOUS
10
111.118
20
-150.922
11
111.308
21
-150.826
0
LINE
8
BLACK
6
CONTINUOUS
10
111.308
20
-150.826
11
111.594
21
-150.826
0
LINE
8
BLACK
6
CONTINUOUS
10
111.594
20
-150.826
11
111.785
21
-150.922
0
LINE
8
BLACK
6
CONTINUOUS
10
111.785
20
-150.922
11
111.88
21
-151.112
0
LINE
8
BLACK
6
CONTINUOUS
10
111.88
20
-151.112
11
111.88
21
-152.16
0
LINE
8
BLACK
6
CONTINUOUS
10
111.88
20
-151.112
11
111.975
21
-150.922
0
LINE
8
BLACK
6
CONTINUOUS
10
111.975
20
-150.922
11
112.165
21
-150.826
0
LINE
8
BLACK
6
CONTINUOUS
10
112.165
20
-150.826
11
112.451
21
-150.826
0
LINE
8
BLACK
6
CONTINUOUS
10
112.451
20
-150.826
11
112.642
21
-150.922
0
LINE
8
BLACK
6
CONTINUOUS
10
112.642
20
-150.922
11
112.737
21
-151.112
0
LINE
8
BLACK
6
CONTINUOUS
10
112.737
20
-151.112
11
112.737
21
-152.16
0
LINE
8
BLACK
6
CONTINUOUS
10
113.689
20
-152.16
11
113.689
21
-150.826
0
LINE
8
BLACK
6
CONTINUOUS
10
113.689
20
-151.017
11
113.785
21
-150.922
0
LINE
8
BLACK
6
CONTINUOUS
10
113.785
20
-150.922
11
113.975
21
-150.826
0
LINE
8
BLACK
6
CONTINUOUS
10
113.975
20
-150.826
11
114.261
21
-150.826
0
LINE
8
BLACK
6
CONTINUOUS
10
114.261
20
-150.826
11
114.451
21
-150.922
0
LINE
8
BLACK
6
CONTINUOUS
10
114.451
20
-150.922
11
114.546
21
-151.112
0
LINE
8
BLACK
6
CONTINUOUS
10
114.546
20
-151.112
11
114.546
21
-152.16
0
LINE
8
BLACK
6
CONTINUOUS
10
114.546
20
-151.112
11
114.642
21
-150.922
0
LINE
8
BLACK
6
CONTINUOUS
10
114.642
20
-150.922
11
114.832
21
-150.826
0
LINE
8
BLACK
6
CONTINUOUS
10
114.832
20
-150.826
11
115.118
21
-150.826
0
LINE
8
BLACK
6
CONTINUOUS
10
115.118
20
-150.826
11
115.308
21
-150.922
0
LINE
8
BLACK
6
CONTINUOUS
10
115.308
20
-150.922
11
115.404
21
-151.112
0
LINE
8
BLACK
6
CONTINUOUS
10
115.404
20
-151.112
11
115.404
21
-152.16
0
LINE
8
BLACK
6
CONTINUOUS
10
118.985
20
-150.065
11
117.27
21
-152.636
0
LINE
8
BLACK
6
CONTINUOUS
10
121.232
20
-150.16
11
121.423
21
-150.16
0
LINE
8
BLACK
6
CONTINUOUS
10
121.423
20
-150.16
11
121.613
21
-150.255
0
LINE
8
BLACK
6
CONTINUOUS
10
121.613
20
-150.255
11
121.708
21
-150.35
0
LINE
8
BLACK
6
CONTINUOUS
10
121.708
20
-150.35
11
121.804
21
-150.541
0
LINE
8
BLACK
6
CONTINUOUS
10
121.804
20
-150.541
11
121.899
21
-150.922
0
LINE
8
BLACK
6
CONTINUOUS
10
121.899
20
-150.922
11
121.899
21
-151.398
0
LINE
8
BLACK
6
CONTINUOUS
10
121.899
20
-151.398
11
121.804
21
-151.779
0
LINE
8
BLACK
6
CONTINUOUS
10
121.804
20
-151.779
11
121.708
21
-151.969
0
LINE
8
BLACK
6
CONTINUOUS
10
121.708
20
-151.969
11
121.613
21
-152.065
0
LINE
8
BLACK
6
CONTINUOUS
10
121.613
20
-152.065
11
121.423
21
-152.16
0
LINE
8
BLACK
6
CONTINUOUS
10
121.423
20
-152.16
11
121.232
21
-152.16
0
LINE
8
BLACK
6
CONTINUOUS
10
121.232
20
-152.16
11
121.042
21
-152.065
0
LINE
8
BLACK
6
CONTINUOUS
10
121.042
20
-152.065
11
120.946
21
-151.969
0
LINE
8
BLACK
6
CONTINUOUS
10
120.946
20
-151.969
11
120.851
21
-151.779
0
LINE
8
BLACK
6
CONTINUOUS
10
120.851
20
-151.779
11
120.756
21
-151.398
0
LINE
8
BLACK
6
CONTINUOUS
10
120.756
20
-151.398
11
120.756
21
-150.922
0
LINE
8
BLACK
6
CONTINUOUS
10
120.756
20
-150.922
11
120.851
21
-150.541
0
LINE
8
BLACK
6
CONTINUOUS
10
120.851
20
-150.541
11
120.946
21
-150.35
0
LINE
8
BLACK
6
CONTINUOUS
10
120.946
20
-150.35
11
121.042
21
-150.255
0
LINE
8
BLACK
6
CONTINUOUS
10
121.042
20
-150.255
11
121.232
21
-150.16
0
LINE
8
BLACK
6
CONTINUOUS
10
122.756
20
-151.969
11
122.851
21
-152.065
0
LINE
8
BLACK
6
CONTINUOUS
10
122.851
20
-152.065
11
122.756
21
-152.16
0
LINE
8
BLACK
6
CONTINUOUS
10
122.756
20
-152.16
11
122.661
21
-152.065
0
LINE
8
BLACK
6
CONTINUOUS
10
122.661
20
-152.065
11
122.756
21
-151.969
0
LINE
8
BLACK
6
CONTINUOUS
10
122.756
20
-151.969
11
122.756
21
-152.16
0
LINE
8
BLACK
6
CONTINUOUS
10
124.089
20
-150.16
11
124.28
21
-150.16
0
LINE
8
BLACK
6
CONTINUOUS
10
124.28
20
-150.16
11
124.47
21
-150.255
0
LINE
8
BLACK
6
CONTINUOUS
10
124.47
20
-150.255
11
124.565
21
-150.35
0
LINE
8
BLACK
6
CONTINUOUS
10
124.565
20
-150.35
11
124.661
21
-150.541
0
LINE
8
BLACK
6
CONTINUOUS
10
124.661
20
-150.541
11
124.756
21
-150.922
0
LINE
8
BLACK
6
CONTINUOUS
10
124.756
20
-150.922
11
124.756
21
-151.398
0
LINE
8
BLACK
6
CONTINUOUS
10
124.756
20
-151.398
11
124.661
21
-151.779
0
LINE
8
BLACK
6
CONTINUOUS
10
124.661
20
-151.779
11
124.565
21
-151.969
0
LINE
8
BLACK
6
CONTINUOUS
10
124.565
20
-151.969
11
124.47
21
-152.065
0
LINE
8
BLACK
6
CONTINUOUS
10
124.47
20
-152.065
11
124.28
21
-152.16
0
LINE
8
BLACK
6
CONTINUOUS
10
124.28
20
-152.16
11
124.089
21
-152.16
0
LINE
8
BLACK
6
CONTINUOUS
10
124.089
20
-152.16
11
123.899
21
-152.065
0
LINE
8
BLACK
6
CONTINUOUS
10
123.899
20
-152.065
11
123.804
21
-151.969
0
LINE
8
BLACK
6
CONTINUOUS
10
123.804
20
-151.969
11
123.708
21
-151.779
0
LINE
8
BLACK
6
CONTINUOUS
10
123.708
20
-151.779
11
123.613
21
-151.398
0
LINE
8
BLACK
6
CONTINUOUS
10
123.613
20
-151.398
11
123.613
21
-150.922
0
LINE
8
BLACK
6
CONTINUOUS
10
123.613
20
-150.922
11
123.708
21
-150.541
0
LINE
8
BLACK
6
CONTINUOUS
10
123.708
20
-150.541
11
123.804
21
-150.35
0
LINE
8
BLACK
6
CONTINUOUS
10
123.804
20
-150.35
11
123.899
21
-150.255
0
LINE
8
BLACK
6
CONTINUOUS
10
123.899
20
-150.255
11
124.089
21
-150.16
0
LINE
8
BLACK
6
CONTINUOUS
10
126.661
20
-152.16
11
125.518
21
-152.16
0
LINE
8
BLACK
6
CONTINUOUS
10
126.089
20
-152.16
11
126.089
21
-150.16
0
LINE
8
BLACK
6
CONTINUOUS
10
126.089
20
-150.16
11
125.899
21
-150.445
0
LINE
8
BLACK
6
CONTINUOUS
10
125.899
20
-150.445
11
125.708
21
-150.636
0
LINE
8
BLACK
6
CONTINUOUS
10
125.708
20
-150.636
11
125.518
21
-150.731
0
LINE
8
BLACK
6
CONTINUOUS
10
128.47
20
-150.16
11
127.518
21
-150.16
0
LINE
8
BLACK
6
CONTINUOUS
10
127.518
20
-150.16
11
127.423
21
-151.112
0
LINE
8
BLACK
6
CONTINUOUS
10
127.423
20
-151.112
11
127.518
21
-151.017
0
LINE
8
BLACK
6
CONTINUOUS
10
127.518
20
-151.017
11
127.708
21
-150.922
0
LINE
8
BLACK
6
CONTINUOUS
10
127.708
20
-150.922
11
128.185
21
-150.922
0
LINE
8
BLACK
6
CONTINUOUS
10
128.185
20
-150.922
11
128.375
21
-151.017
0
LINE
8
BLACK
6
CONTINUOUS
10
128.375
20
-151.017
11
128.47
21
-151.112
0
LINE
8
BLACK
6
CONTINUOUS
10
128.47
20
-151.112
11
128.565
21
-151.303
0
LINE
8
BLACK
6
CONTINUOUS
10
128.565
20
-151.303
11
128.565
21
-151.779
0
LINE
8
BLACK
6
CONTINUOUS
10
128.565
20
-151.779
11
128.47
21
-151.969
0
LINE
8
BLACK
6
CONTINUOUS
10
128.47
20
-151.969
11
128.375
21
-152.065
0
LINE
8
BLACK
6
CONTINUOUS
10
128.375
20
-152.065
11
128.185
21
-152.16
0
LINE
8
BLACK
6
CONTINUOUS
10
128.185
20
-152.16
11
127.708
21
-152.16
0
LINE
8
BLACK
6
CONTINUOUS
10
127.708
20
-152.16
11
127.518
21
-152.065
0
LINE
8
BLACK
6
CONTINUOUS
10
127.518
20
-152.065
11
127.423
21
-151.969
0
LINE
8
BLACK
6
CONTINUOUS
10
129.232
20
-150.16
11
130.565
21
-150.16
0
LINE
8
BLACK
6
CONTINUOUS
10
130.565
20
-150.16
11
129.708
21
-152.16
0
LINE
8
BLACK
6
CONTINUOUS
10
131.232
20
-150.16
11
131.232
21
-150.541
0
LINE
8
BLACK
6
CONTINUOUS
10
131.994
20
-150.16
11
131.994
21
-150.541
0
LINE
8
BLACK
6
CONTINUOUS
10
134.623
20
-152.922
11
134.527
21
-152.826
0
LINE
8
BLACK
6
CONTINUOUS
10
134.527
20
-152.826
11
134.337
21
-152.541
0
LINE
8
BLACK
6
CONTINUOUS
10
134.337
20
-152.541
11
134.242
21
-152.35
0
LINE
8
BLACK
6
CONTINUOUS
10
134.242
20
-152.35
11
134.146
21
-152.065
0
LINE
8
BLACK
6
CONTINUOUS
10
134.146
20
-152.065
11
134.051
21
-151.588
0
LINE
8
BLACK
6
CONTINUOUS
10
134.051
20
-151.588
11
134.051
21
-151.207
0
LINE
8
BLACK
6
CONTINUOUS
10
134.051
20
-151.207
11
134.146
21
-150.731
0
LINE
8
BLACK
6
CONTINUOUS
10
134.146
20
-150.731
11
134.242
21
-150.445
0
LINE
8
BLACK
6
CONTINUOUS
10
134.242
20
-150.445
11
134.337
21
-150.255
0
LINE
8
BLACK
6
CONTINUOUS
10
134.337
20
-150.255
11
134.527
21
-149.969
0
LINE
8
BLACK
6
CONTINUOUS
10
134.527
20
-149.969
11
134.623
21
-149.874
0
LINE
8
BLACK
6
CONTINUOUS
10
135.194
20
-150.16
11
136.432
21
-150.16
0
LINE
8
BLACK
6
CONTINUOUS
10
136.432
20
-150.16
11
135.765
21
-150.922
0
LINE
8
BLACK
6
CONTINUOUS
10
135.765
20
-150.922
11
136.051
21
-150.922
0
LINE
8
BLACK
6
CONTINUOUS
10
136.051
20
-150.922
11
136.242
21
-151.017
0
LINE
8
BLACK
6
CONTINUOUS
10
136.242
20
-151.017
11
136.337
21
-151.112
0
LINE
8
BLACK
6
CONTINUOUS
10
136.337
20
-151.112
11
136.432
21
-151.303
0
LINE
8
BLACK
6
CONTINUOUS
10
136.432
20
-151.303
11
136.432
21
-151.779
0
LINE
8
BLACK
6
CONTINUOUS
10
136.432
20
-151.779
11
136.337
21
-151.969
0
LINE
8
BLACK
6
CONTINUOUS
10
136.337
20
-151.969
11
136.242
21
-152.065
0
LINE
8
BLACK
6
CONTINUOUS
10
136.242
20
-152.065
11
136.051
21
-152.16
0
LINE
8
BLACK
6
CONTINUOUS
10
136.051
20
-152.16
11
135.48
21
-152.16
0
LINE
8
BLACK
6
CONTINUOUS
10
135.48
20
-152.16
11
135.289
21
-152.065
0
LINE
8
BLACK
6
CONTINUOUS
10
135.289
20
-152.065
11
135.194
21
-151.969
0
LINE
8
BLACK
6
CONTINUOUS
10
137.099
20
-150.16
11
138.432
21
-150.16
0
LINE
8
BLACK
6
CONTINUOUS
10
138.432
20
-150.16
11
137.575
21
-152.16
0
LINE
8
BLACK
6
CONTINUOUS
10
140.394
20
-152.16
11
140.394
21
-150.16
0
LINE
8
BLACK
6
CONTINUOUS
10
141.251
20
-152.16
11
141.251
21
-151.112
0
LINE
8
BLACK
6
CONTINUOUS
10
141.251
20
-151.112
11
141.156
21
-150.922
0
LINE
8
BLACK
6
CONTINUOUS
10
141.156
20
-150.922
11
140.965
21
-150.826
0
LINE
8
BLACK
6
CONTINUOUS
10
140.965
20
-150.826
11
140.68
21
-150.826
0
LINE
8
BLACK
6
CONTINUOUS
10
140.68
20
-150.826
11
140.489
21
-150.922
0
LINE
8
BLACK
6
CONTINUOUS
10
140.489
20
-150.922
11
140.394
21
-151.017
0
LINE
8
BLACK
6
CONTINUOUS
10
142.489
20
-152.16
11
142.299
21
-152.065
0
LINE
8
BLACK
6
CONTINUOUS
10
142.299
20
-152.065
11
142.204
21
-151.969
0
LINE
8
BLACK
6
CONTINUOUS
10
142.204
20
-151.969
11
142.108
21
-151.779
0
LINE
8
BLACK
6
CONTINUOUS
10
142.108
20
-151.779
11
142.108
21
-151.207
0
LINE
8
BLACK
6
CONTINUOUS
10
142.108
20
-151.207
11
142.204
21
-151.017
0
LINE
8
BLACK
6
CONTINUOUS
10
142.204
20
-151.017
11
142.299
21
-150.922
0
LINE
8
BLACK
6
CONTINUOUS
10
142.299
20
-150.922
11
142.489
21
-150.826
0
LINE
8
BLACK
6
CONTINUOUS
10
142.489
20
-150.826
11
142.775
21
-150.826
0
LINE
8
BLACK
6
CONTINUOUS
10
142.775
20
-150.826
11
142.965
21
-150.922
0
LINE
8
BLACK
6
CONTINUOUS
10
142.965
20
-150.922
11
143.061
21
-151.017
0
LINE
8
BLACK
6
CONTINUOUS
10
143.061
20
-151.017
11
143.156
21
-151.207
0
LINE
8
BLACK
6
CONTINUOUS
10
143.156
20
-151.207
11
143.156
21
-151.779
0
LINE
8
BLACK
6
CONTINUOUS
10
143.156
20
-151.779
11
143.061
21
-151.969
0
LINE
8
BLACK
6
CONTINUOUS
10
143.061
20
-151.969
11
142.965
21
-152.065
0
LINE
8
BLACK
6
CONTINUOUS
10
142.965
20
-152.065
11
142.775
21
-152.16
0
LINE
8
BLACK
6
CONTINUOUS
10
142.775
20
-152.16
11
142.489
21
-152.16
0
LINE
8
BLACK
6
CONTINUOUS
10
144.299
20
-152.16
11
144.108
21
-152.065
0
LINE
8
BLACK
6
CONTINUOUS
10
144.108
20
-152.065
11
144.013
21
-151.874
0
LINE
8
BLACK
6
CONTINUOUS
10
144.013
20
-151.874
11
144.013
21
-150.16
0
LINE
8
BLACK
6
CONTINUOUS
10
145.823
20
-152.065
11
145.632
21
-152.16
0
LINE
8
BLACK
6
CONTINUOUS
10
145.632
20
-152.16
11
145.251
21
-152.16
0
LINE
8
BLACK
6
CONTINUOUS
10
145.251
20
-152.16
11
145.061
21
-152.065
0
LINE
8
BLACK
6
CONTINUOUS
10
145.061
20
-152.065
11
144.965
21
-151.874
0
LINE
8
BLACK
6
CONTINUOUS
10
144.965
20
-151.874
11
144.965
21
-151.112
0
LINE
8
BLACK
6
CONTINUOUS
10
144.965
20
-151.112
11
145.061
21
-150.922
0
LINE
8
BLACK
6
CONTINUOUS
10
145.061
20
-150.922
11
145.251
21
-150.826
0
LINE
8
BLACK
6
CONTINUOUS
10
145.251
20
-150.826
11
145.632
21
-150.826
0
LINE
8
BLACK
6
CONTINUOUS
10
145.632
20
-150.826
11
145.823
21
-150.922
0
LINE
8
BLACK
6
CONTINUOUS
10
145.823
20
-150.922
11
145.918
21
-151.112
0
LINE
8
BLACK
6
CONTINUOUS
10
145.918
20
-151.112
11
145.918
21
-151.303
0
LINE
8
BLACK
6
CONTINUOUS
10
145.918
20
-151.303
11
144.965
21
-151.493
0
LINE
8
BLACK
6
CONTINUOUS
10
146.68
20
-152.065
11
146.87
21
-152.16
0
LINE
8
BLACK
6
CONTINUOUS
10
146.87
20
-152.16
11
147.251
21
-152.16
0
LINE
8
BLACK
6
CONTINUOUS
10
147.251
20
-152.16
11
147.442
21
-152.065
0
LINE
8
BLACK
6
CONTINUOUS
10
147.442
20
-152.065
11
147.537
21
-151.874
0
LINE
8
BLACK
6
CONTINUOUS
10
147.537
20
-151.874
11
147.537
21
-151.779
0
LINE
8
BLACK
6
CONTINUOUS
10
147.537
20
-151.779
11
147.442
21
-151.588
0
LINE
8
BLACK
6
CONTINUOUS
10
147.442
20
-151.588
11
147.251
21
-151.493
0
LINE
8
BLACK
6
CONTINUOUS
10
147.251
20
-151.493
11
146.965
21
-151.493
0
LINE
8
BLACK
6
CONTINUOUS
10
146.965
20
-151.493
11
146.775
21
-151.398
0
LINE
8
BLACK
6
CONTINUOUS
10
146.775
20
-151.398
11
146.68
21
-151.207
0
LINE
8
BLACK
6
CONTINUOUS
10
146.68
20
-151.207
11
146.68
21
-151.112
0
LINE
8
BLACK
6
CONTINUOUS
10
146.68
20
-151.112
11
146.775
21
-150.922
0
LINE
8
BLACK
6
CONTINUOUS
10
146.775
20
-150.922
11
146.965
21
-150.826
0
LINE
8
BLACK
6
CONTINUOUS
10
146.965
20
-150.826
11
147.251
21
-150.826
0
LINE
8
BLACK
6
CONTINUOUS
10
147.251
20
-150.826
11
147.442
21
-150.922
0
LINE
8
BLACK
6
CONTINUOUS
10
148.204
20
-152.922
11
148.299
21
-152.826
0
LINE
8
BLACK
6
CONTINUOUS
10
148.299
20
-152.826
11
148.489
21
-152.541
0
LINE
8
BLACK
6
CONTINUOUS
10
148.489
20
-152.541
11
148.585
21
-152.35
0
LINE
8
BLACK
6
CONTINUOUS
10
148.585
20
-152.35
11
148.68
21
-152.065
0
LINE
8
BLACK
6
CONTINUOUS
10
148.68
20
-152.065
11
148.775
21
-151.588
0
LINE
8
BLACK
6
CONTINUOUS
10
148.775
20
-151.588
11
148.775
21
-151.207
0
LINE
8
BLACK
6
CONTINUOUS
10
148.775
20
-151.207
11
148.68
21
-150.731
0
LINE
8
BLACK
6
CONTINUOUS
10
148.68
20
-150.731
11
148.585
21
-150.445
0
LINE
8
BLACK
6
CONTINUOUS
10
148.585
20
-150.445
11
148.489
21
-150.255
0
LINE
8
BLACK
6
CONTINUOUS
10
148.489
20
-150.255
11
148.299
21
-149.969
0
LINE
8
BLACK
6
CONTINUOUS
10
148.299
20
-149.969
11
148.204
21
-149.874
0
CIRCLE
8
BLACK
10
99.625
20
-154.065
40
0.35
0
LINE
8
BLACK
6
CONTINUOUS
10
102.832
20
-152.8
11
103.023
21
-152.8
0
LINE
8
BLACK
6
CONTINUOUS
10
103.023
20
-152.8
11
103.213
21
-152.895
0
LINE
8
BLACK
6
CONTINUOUS
10
103.213
20
-152.895
11
103.308
21
-152.99
0
LINE
8
BLACK
6
CONTINUOUS
10
103.308
20
-152.99
11
103.404
21
-153.181
0
LINE
8
BLACK
6
CONTINUOUS
10
103.404
20
-153.181
11
103.499
21
-153.562
0
LINE
8
BLACK
6
CONTINUOUS
10
103.499
20
-153.562
11
103.499
21
-154.038
0
LINE
8
BLACK
6
CONTINUOUS
10
103.499
20
-154.038
11
103.404
21
-154.419
0
LINE
8
BLACK
6
CONTINUOUS
10
103.404
20
-154.419
11
103.308
21
-154.609
0
LINE
8
BLACK
6
CONTINUOUS
10
103.308
20
-154.609
11
103.213
21
-154.705
0
LINE
8
BLACK
6
CONTINUOUS
10
103.213
20
-154.705
11
103.023
21
-154.8
0
LINE
8
BLACK
6
CONTINUOUS
10
103.023
20
-154.8
11
102.832
21
-154.8
0
LINE
8
BLACK
6
CONTINUOUS
10
102.832
20
-154.8
11
102.642
21
-154.705
0
LINE
8
BLACK
6
CONTINUOUS
10
102.642
20
-154.705
11
102.546
21
-154.609
0
LINE
8
BLACK
6
CONTINUOUS
10
102.546
20
-154.609
11
102.451
21
-154.419
0
LINE
8
BLACK
6
CONTINUOUS
10
102.451
20
-154.419
11
102.356
21
-154.038
0
LINE
8
BLACK
6
CONTINUOUS
10
102.356
20
-154.038
11
102.356
21
-153.562
0
LINE
8
BLACK
6
CONTINUOUS
10
102.356
20
-153.562
11
102.451
21
-153.181
0
LINE
8
BLACK
6
CONTINUOUS
10
102.451
20
-153.181
11
102.546
21
-152.99
0
LINE
8
BLACK
6
CONTINUOUS
10
102.546
20
-152.99
11
102.642
21
-152.895
0
LINE
8
BLACK
6
CONTINUOUS
10
102.642
20
-152.895
11
102.832
21
-152.8
0
LINE
8
BLACK
6
CONTINUOUS
10
104.356
20
-154.609
11
104.451
21
-154.705
0
LINE
8
BLACK
6
CONTINUOUS
10
104.451
20
-154.705
11
104.356
21
-154.8
0
LINE
8
BLACK
6
CONTINUOUS
10
104.356
20
-154.8
11
104.261
21
-154.705
0
LINE
8
BLACK
6
CONTINUOUS
10
104.261
20
-154.705
11
104.356
21
-154.609
0
LINE
8
BLACK
6
CONTINUOUS
10
104.356
20
-154.609
11
104.356
21
-154.8
0
LINE
8
BLACK
6
CONTINUOUS
10
105.118
20
-152.8
11
106.451
21
-152.8
0
LINE
8
BLACK
6
CONTINUOUS
10
106.451
20
-152.8
11
105.594
21
-154.8
0
LINE
8
BLACK
6
CONTINUOUS
10
107.594
20
-152.8
11
107.785
21
-152.8
0
LINE
8
BLACK
6
CONTINUOUS
10
107.785
20
-152.8
11
107.975
21
-152.895
0
LINE
8
BLACK
6
CONTINUOUS
10
107.975
20
-152.895
11
108.07
21
-152.99
0
LINE
8
BLACK
6
CONTINUOUS
10
108.07
20
-152.99
11
108.165
21
-153.181
0
LINE
8
BLACK
6
CONTINUOUS
10
108.165
20
-153.181
11
108.261
21
-153.562
0
LINE
8
BLACK
6
CONTINUOUS
10
108.261
20
-153.562
11
108.261
21
-154.038
0
LINE
8
BLACK
6
CONTINUOUS
10
108.261
20
-154.038
11
108.165
21
-154.419
0
LINE
8
BLACK
6
CONTINUOUS
10
108.165
20
-154.419
11
108.07
21
-154.609
0
LINE
8
BLACK
6
CONTINUOUS
10
108.07
20
-154.609
11
107.975
21
-154.705
0
LINE
8
BLACK
6
CONTINUOUS
10
107.975
20
-154.705
11
107.785
21
-154.8
0
LINE
8
BLACK
6
CONTINUOUS
10
107.785
20
-154.8
11
107.594
21
-154.8
0
LINE
8
BLACK
6
CONTINUOUS
10
107.594
20
-154.8
11
107.404
21
-154.705
0
LINE
8
BLACK
6
CONTINUOUS
10
107.404
20
-154.705
11
107.308
21
-154.609
0
LINE
8
BLACK
6
CONTINUOUS
10
107.308
20
-154.609
11
107.213
21
-154.419
0
LINE
8
BLACK
6
CONTINUOUS
10
107.213
20
-154.419
11
107.118
21
-154.038
0
LINE
8
BLACK
6
CONTINUOUS
10
107.118
20
-154.038
11
107.118
21
-153.562
0
LINE
8
BLACK
6
CONTINUOUS
10
107.118
20
-153.562
11
107.213
21
-153.181
0
LINE
8
BLACK
6
CONTINUOUS
10
107.213
20
-153.181
11
107.308
21
-152.99
0
LINE
8
BLACK
6
CONTINUOUS
10
107.308
20
-152.99
11
107.404
21
-152.895
0
LINE
8
BLACK
6
CONTINUOUS
10
107.404
20
-152.895
11
107.594
21
-152.8
0
LINE
8
BLACK
6
CONTINUOUS
10
109.499
20
-152.8
11
109.689
21
-152.8
0
LINE
8
BLACK
6
CONTINUOUS
10
109.689
20
-152.8
11
109.88
21
-152.895
0
LINE
8
BLACK
6
CONTINUOUS
10
109.88
20
-152.895
11
109.975
21
-152.99
0
LINE
8
BLACK
6
CONTINUOUS
10
109.975
20
-152.99
11
110.07
21
-153.181
0
LINE
8
BLACK
6
CONTINUOUS
10
110.07
20
-153.181
11
110.165
21
-153.562
0
LINE
8
BLACK
6
CONTINUOUS
10
110.165
20
-153.562
11
110.165
21
-154.038
0
LINE
8
BLACK
6
CONTINUOUS
10
110.165
20
-154.038
11
110.07
21
-154.419
0
LINE
8
BLACK
6
CONTINUOUS
10
110.07
20
-154.419
11
109.975
21
-154.609
0
LINE
8
BLACK
6
CONTINUOUS
10
109.975
20
-154.609
11
109.88
21
-154.705
0
LINE
8
BLACK
6
CONTINUOUS
10
109.88
20
-154.705
11
109.689
21
-154.8
0
LINE
8
BLACK
6
CONTINUOUS
10
109.689
20
-154.8
11
109.499
21
-154.8
0
LINE
8
BLACK
6
CONTINUOUS
10
109.499
20
-154.8
11
109.308
21
-154.705
0
LINE
8
BLACK
6
CONTINUOUS
10
109.308
20
-154.705
11
109.213
21
-154.609
0
LINE
8
BLACK
6
CONTINUOUS
10
109.213
20
-154.609
11
109.118
21
-154.419
0
LINE
8
BLACK
6
CONTINUOUS
10
109.118
20
-154.419
11
109.023
21
-154.038
0
LINE
8
BLACK
6
CONTINUOUS
10
109.023
20
-154.038
11
109.023
21
-153.562
0
LINE
8
BLACK
6
CONTINUOUS
10
109.023
20
-153.562
11
109.118
21
-153.181
0
LINE
8
BLACK
6
CONTINUOUS
10
109.118
20
-153.181
11
109.213
21
-152.99
0
LINE
8
BLACK
6
CONTINUOUS
10
109.213
20
-152.99
11
109.308
21
-152.895
0
LINE
8
BLACK
6
CONTINUOUS
10
109.308
20
-152.895
11
109.499
21
-152.8
0
LINE
8
BLACK
6
CONTINUOUS
10
111.023
20
-154.8
11
111.023
21
-153.466
0
LINE
8
BLACK
6
CONTINUOUS
10
111.023
20
-153.657
11
111.118
21
-153.562
0
LINE
8
BLACK
6
CONTINUOUS
10
111.118
20
-153.562
11
111.308
21
-153.466
0
LINE
8
BLACK
6
CONTINUOUS
10
111.308
20
-153.466
11
111.594
21
-153.466
0
LINE
8
BLACK
6
CONTINUOUS
10
111.594
20
-153.466
11
111.785
21
-153.562
0
LINE
8
BLACK
6
CONTINUOUS
10
111.785
20
-153.562
11
111.88
21
-153.752
0
LINE
8
BLACK
6
CONTINUOUS
10
111.88
20
-153.752
11
111.88
21
-154.8
0
LINE
8
BLACK
6
CONTINUOUS
10
111.88
20
-153.752
11
111.975
21
-153.562
0
LINE
8
BLACK
6
CONTINUOUS
10
111.975
20
-153.562
11
112.165
21
-153.466
0
LINE
8
BLACK
6
CONTINUOUS
10
112.165
20
-153.466
11
112.451
21
-153.466
0
LINE
8
BLACK
6
CONTINUOUS
10
112.451
20
-153.466
11
112.642
21
-153.562
0
LINE
8
BLACK
6
CONTINUOUS
10
112.642
20
-153.562
11
112.737
21
-153.752
0
LINE
8
BLACK
6
CONTINUOUS
10
112.737
20
-153.752
11
112.737
21
-154.8
0
LINE
8
BLACK
6
CONTINUOUS
10
113.689
20
-154.8
11
113.689
21
-153.466
0
LINE
8
BLACK
6
CONTINUOUS
10
113.689
20
-153.657
11
113.785
21
-153.562
0
LINE
8
BLACK
6
CONTINUOUS
10
113.785
20
-153.562
11
113.975
21
-153.466
0
LINE
8
BLACK
6
CONTINUOUS
10
113.975
20
-153.466
11
114.261
21
-153.466
0
LINE
8
BLACK
6
CONTINUOUS
10
114.261
20
-153.466
11
114.451
21
-153.562
0
LINE
8
BLACK
6
CONTINUOUS
10
114.451
20
-153.562
11
114.546
21
-153.752
0
LINE
8
BLACK
6
CONTINUOUS
10
114.546
20
-153.752
11
114.546
21
-154.8
0
LINE
8
BLACK
6
CONTINUOUS
10
114.546
20
-153.752
11
114.642
21
-153.562
0
LINE
8
BLACK
6
CONTINUOUS
10
114.642
20
-153.562
11
114.832
21
-153.466
0
LINE
8
BLACK
6
CONTINUOUS
10
114.832
20
-153.466
11
115.118
21
-153.466
0
LINE
8
BLACK
6
CONTINUOUS
10
115.118
20
-153.466
11
115.308
21
-153.562
0
LINE
8
BLACK
6
CONTINUOUS
10
115.308
20
-153.562
11
115.404
21
-153.752
0
LINE
8
BLACK
6
CONTINUOUS
10
115.404
20
-153.752
11
115.404
21
-154.8
0
LINE
8
BLACK
6
CONTINUOUS
10
118.985
20
-152.705
11
117.27
21
-155.276
0
LINE
8
BLACK
6
CONTINUOUS
10
121.232
20
-152.8
11
121.423
21
-152.8
0
LINE
8
BLACK
6
CONTINUOUS
10
121.423
20
-152.8
11
121.613
21
-152.895
0
LINE
8
BLACK
6
CONTINUOUS
10
121.613
20
-152.895
11
121.708
21
-152.99
0
LINE
8
BLACK
6
CONTINUOUS
10
121.708
20
-152.99
11
121.804
21
-153.181
0
LINE
8
BLACK
6
CONTINUOUS
10
121.804
20
-153.181
11
121.899
21
-153.562
0
LINE
8
BLACK
6
CONTINUOUS
10
121.899
20
-153.562
11
121.899
21
-154.038
0
LINE
8
BLACK
6
CONTINUOUS
10
121.899
20
-154.038
11
121.804
21
-154.419
0
LINE
8
BLACK
6
CONTINUOUS
10
121.804
20
-154.419
11
121.708
21
-154.609
0
LINE
8
BLACK
6
CONTINUOUS
10
121.708
20
-154.609
11
121.613
21
-154.705
0
LINE
8
BLACK
6
CONTINUOUS
10
121.613
20
-154.705
11
121.423
21
-154.8
0
LINE
8
BLACK
6
CONTINUOUS
10
121.423
20
-154.8
11
121.232
21
-154.8
0
LINE
8
BLACK
6
CONTINUOUS
10
121.232
20
-154.8
11
121.042
21
-154.705
0
LINE
8
BLACK
6
CONTINUOUS
10
121.042
20
-154.705
11
120.946
21
-154.609
0
LINE
8
BLACK
6
CONTINUOUS
10
120.946
20
-154.609
11
120.851
21
-154.419
0
LINE
8
BLACK
6
CONTINUOUS
10
120.851
20
-154.419
11
120.756
21
-154.038
0
LINE
8
BLACK
6
CONTINUOUS
10
120.756
20
-154.038
11
120.756
21
-153.562
0
LINE
8
BLACK
6
CONTINUOUS
10
120.756
20
-153.562
11
120.851
21
-153.181
0
LINE
8
BLACK
6
CONTINUOUS
10
120.851
20
-153.181
11
120.946
21
-152.99
0
LINE
8
BLACK
6
CONTINUOUS
10
120.946
20
-152.99
11
121.042
21
-152.895
0
LINE
8
BLACK
6
CONTINUOUS
10
121.042
20
-152.895
11
121.232
21
-152.8
0
LINE
8
BLACK
6
CONTINUOUS
10
122.756
20
-154.609
11
122.851
21
-154.705
0
LINE
8
BLACK
6
CONTINUOUS
10
122.851
20
-154.705
11
122.756
21
-154.8
0
LINE
8
BLACK
6
CONTINUOUS
10
122.756
20
-154.8
11
122.661
21
-154.705
0
LINE
8
BLACK
6
CONTINUOUS
10
122.661
20
-154.705
11
122.756
21
-154.609
0
LINE
8
BLACK
6
CONTINUOUS
10
122.756
20
-154.609
11
122.756
21
-154.8
0
LINE
8
BLACK
6
CONTINUOUS
10
124.089
20
-152.8
11
124.28
21
-152.8
0
LINE
8
BLACK
6
CONTINUOUS
10
124.28
20
-152.8
11
124.47
21
-152.895
0
LINE
8
BLACK
6
CONTINUOUS
10
124.47
20
-152.895
11
124.565
21
-152.99
0
LINE
8
BLACK
6
CONTINUOUS
10
124.565
20
-152.99
11
124.661
21
-153.181
0
LINE
8
BLACK
6
CONTINUOUS
10
124.661
20
-153.181
11
124.756
21
-153.562
0
LINE
8
BLACK
6
CONTINUOUS
10
124.756
20
-153.562
11
124.756
21
-154.038
0
LINE
8
BLACK
6
CONTINUOUS
10
124.756
20
-154.038
11
124.661
21
-154.419
0
LINE
8
BLACK
6
CONTINUOUS
10
124.661
20
-154.419
11
124.565
21
-154.609
0
LINE
8
BLACK
6
CONTINUOUS
10
124.565
20
-154.609
11
124.47
21
-154.705
0
LINE
8
BLACK
6
CONTINUOUS
10
124.47
20
-154.705
11
124.28
21
-154.8
0
LINE
8
BLACK
6
CONTINUOUS
10
124.28
20
-154.8
11
124.089
21
-154.8
0
LINE
8
BLACK
6
CONTINUOUS
10
124.089
20
-154.8
11
123.899
21
-154.705
0
LINE
8
BLACK
6
CONTINUOUS
10
123.899
20
-154.705
11
123.804
21
-154.609
0
LINE
8
BLACK
6
CONTINUOUS
10
123.804
20
-154.609
11
123.708
21
-154.419
0
LINE
8
BLACK
6
CONTINUOUS
10
123.708
20
-154.419
11
123.613
21
-154.038
0
LINE
8
BLACK
6
CONTINUOUS
10
123.613
20
-154.038
11
123.613
21
-153.562
0
LINE
8
BLACK
6
CONTINUOUS
10
123.613
20
-153.562
11
123.708
21
-153.181
0
LINE
8
BLACK
6
CONTINUOUS
10
123.708
20
-153.181
11
123.804
21
-152.99
0
LINE
8
BLACK
6
CONTINUOUS
10
123.804
20
-152.99
11
123.899
21
-152.895
0
LINE
8
BLACK
6
CONTINUOUS
10
123.899
20
-152.895
11
124.089
21
-152.8
0
LINE
8
BLACK
6
CONTINUOUS
10
125.518
20
-152.99
11
125.613
21
-152.895
0
LINE
8
BLACK
6
CONTINUOUS
10
125.613
20
-152.895
11
125.804
21
-152.8
0
LINE
8
BLACK
6
CONTINUOUS
10
125.804
20
-152.8
11
126.28
21
-152.8
0
LINE
8
BLACK
6
CONTINUOUS
10
126.28
20
-152.8
11
126.47
21
-152.895
0
LINE
8
BLACK
6
CONTINUOUS
10
126.47
20
-152.895
11
126.565
21
-152.99
0
LINE
8
BLACK
6
CONTINUOUS
10
126.565
20
-152.99
11
126.661
21
-153.181
0
LINE
8
BLACK
6
CONTINUOUS
10
126.661
20
-153.181
11
126.661
21
-153.371
0
LINE
8
BLACK
6
CONTINUOUS
10
126.661
20
-153.371
11
126.565
21
-153.657
0
LINE
8
BLACK
6
CONTINUOUS
10
126.565
20
-153.657
11
125.423
21
-154.8
0
LINE
8
BLACK
6
CONTINUOUS
10
125.423
20
-154.8
11
126.661
21
-154.8
0
LINE
8
BLACK
6
CONTINUOUS
10
127.327
20
-152.8
11
128.661
21
-152.8
0
LINE
8
BLACK
6
CONTINUOUS
10
128.661
20
-152.8
11
127.804
21
-154.8
0
LINE
8
BLACK
6
CONTINUOUS
10
130.28
20
-152.8
11
129.899
21
-152.8
0
LINE
8
BLACK
6
CONTINUOUS
10
129.899
20
-152.8
11
129.708
21
-152.895
0
LINE
8
BLACK
6
CONTINUOUS
10
129.708
20
-152.895
11
129.613
21
-152.99
0
LINE
8
BLACK
6
CONTINUOUS
10
129.613
20
-152.99
11
129.423
21
-153.276
0
LINE
8
BLACK
6
CONTINUOUS
10
129.423
20
-153.276
11
129.327
21
-153.657
0
LINE
8
BLACK
6
CONTINUOUS
10
129.327
20
-153.657
11
129.327
21
-154.419
0
LINE
8
BLACK
6
CONTINUOUS
10
129.327
20
-154.419
11
129.423
21
-154.609
0
LINE
8
BLACK
6
CONTINUOUS
10
129.423
20
-154.609
11
129.518
21
-154.705
0
LINE
8
BLACK
6
CONTINUOUS
10
129.518
20
-154.705
11
129.708
21
-154.8
0
LINE
8
BLACK
6
CONTINUOUS
10
129.708
20
-154.8
11
130.089
21
-154.8
0
LINE
8
BLACK
6
CONTINUOUS
10
130.089
20
-154.8
11
130.28
21
-154.705
0
LINE
8
BLACK
6
CONTINUOUS
10
130.28
20
-154.705
11
130.375
21
-154.609
0
LINE
8
BLACK
6
CONTINUOUS
10
130.375
20
-154.609
11
130.47
21
-154.419
0
LINE
8
BLACK
6
CONTINUOUS
10
130.47
20
-154.419
11
130.47
21
-153.943
0
LINE
8
BLACK
6
CONTINUOUS
10
130.47
20
-153.943
11
130.375
21
-153.752
0
LINE
8
BLACK
6
CONTINUOUS
10
130.375
20
-153.752
11
130.28
21
-153.657
0
LINE
8
BLACK
6
CONTINUOUS
10
130.28
20
-153.657
11
130.089
21
-153.562
0
LINE
8
BLACK
6
CONTINUOUS
10
130.089
20
-153.562
11
129.708
21
-153.562
0
LINE
8
BLACK
6
CONTINUOUS
10
129.708
20
-153.562
11
129.518
21
-153.657
0
LINE
8
BLACK
6
CONTINUOUS
10
129.518
20
-153.657
11
129.423
21
-153.752
0
LINE
8
BLACK
6
CONTINUOUS
10
129.423
20
-153.752
11
129.327
21
-153.943
0
LINE
8
BLACK
6
CONTINUOUS
10
131.232
20
-152.8
11
131.232
21
-153.181
0
LINE
8
BLACK
6
CONTINUOUS
10
131.994
20
-152.8
11
131.994
21
-153.181
0
LINE
8
BLACK
6
CONTINUOUS
10
134.623
20
-155.562
11
134.527
21
-155.466
0
LINE
8
BLACK
6
CONTINUOUS
10
134.527
20
-155.466
11
134.337
21
-155.181
0
LINE
8
BLACK
6
CONTINUOUS
10
134.337
20
-155.181
11
134.242
21
-154.99
0
LINE
8
BLACK
6
CONTINUOUS
10
134.242
20
-154.99
11
134.146
21
-154.705
0
LINE
8
BLACK
6
CONTINUOUS
10
134.146
20
-154.705
11
134.051
21
-154.228
0
LINE
8
BLACK
6
CONTINUOUS
10
134.051
20
-154.228
11
134.051
21
-153.847
0
LINE
8
BLACK
6
CONTINUOUS
10
134.051
20
-153.847
11
134.146
21
-153.371
0
LINE
8
BLACK
6
CONTINUOUS
10
134.146
20
-153.371
11
134.242
21
-153.085
0
LINE
8
BLACK
6
CONTINUOUS
10
134.242
20
-153.085
11
134.337
21
-152.895
0
LINE
8
BLACK
6
CONTINUOUS
10
134.337
20
-152.895
11
134.527
21
-152.609
0
LINE
8
BLACK
6
CONTINUOUS
10
134.527
20
-152.609
11
134.623
21
-152.514
0
LINE
8
BLACK
6
CONTINUOUS
10
136.432
20
-154.8
11
135.289
21
-154.8
0
LINE
8
BLACK
6
CONTINUOUS
10
135.861
20
-154.8
11
135.861
21
-152.8
0
LINE
8
BLACK
6
CONTINUOUS
10
135.861
20
-152.8
11
135.67
21
-153.085
0
LINE
8
BLACK
6
CONTINUOUS
10
135.67
20
-153.085
11
135.48
21
-153.276
0
LINE
8
BLACK
6
CONTINUOUS
10
135.48
20
-153.276
11
135.289
21
-153.371
0
LINE
8
BLACK
6
CONTINUOUS
10
138.146
20
-153.466
11
138.146
21
-154.8
0
LINE
8
BLACK
6
CONTINUOUS
10
137.67
20
-152.705
11
137.194
21
-154.133
0
LINE
8
BLACK
6
CONTINUOUS
10
137.194
20
-154.133
11
138.432
21
-154.133
0
LINE
8
BLACK
6
CONTINUOUS
10
140.394
20
-154.8
11
140.394
21
-152.8
0
LINE
8
BLACK
6
CONTINUOUS
10
141.251
20
-154.8
11
141.251
21
-153.752
0
LINE
8
BLACK
6
CONTINUOUS
10
141.251
20
-153.752
11
141.156
21
-153.562
0
LINE
8
BLACK
6
CONTINUOUS
10
141.156
20
-153.562
11
140.965
21
-153.466
0
LINE
8
BLACK
6
CONTINUOUS
10
140.965
20
-153.466
11
140.68
21
-153.466
0
LINE
8
BLACK
6
CONTINUOUS
10
140.68
20
-153.466
11
140.489
21
-153.562
0
LINE
8
BLACK
6
CONTINUOUS
10
140.489
20
-153.562
11
140.394
21
-153.657
0
LINE
8
BLACK
6
CONTINUOUS
10
142.489
20
-154.8
11
142.299
21
-154.705
0
LINE
8
BLACK
6
CONTINUOUS
10
142.299
20
-154.705
11
142.204
21
-154.609
0
LINE
8
BLACK
6
CONTINUOUS
10
142.204
20
-154.609
11
142.108
21
-154.419
0
LINE
8
BLACK
6
CONTINUOUS
10
142.108
20
-154.419
11
142.108
21
-153.847
0
LINE
8
BLACK
6
CONTINUOUS
10
142.108
20
-153.847
11
142.204
21
-153.657
0
LINE
8
BLACK
6
CONTINUOUS
10
142.204
20
-153.657
11
142.299
21
-153.562
0
LINE
8
BLACK
6
CONTINUOUS
10
142.299
20
-153.562
11
142.489
21
-153.466
0
LINE
8
BLACK
6
CONTINUOUS
10
142.489
20
-153.466
11
142.775
21
-153.466
0
LINE
8
BLACK
6
CONTINUOUS
10
142.775
20
-153.466
11
142.965
21
-153.562
0
LINE
8
BLACK
6
CONTINUOUS
10
142.965
20
-153.562
11
143.061
21
-153.657
0
LINE
8
BLACK
6
CONTINUOUS
10
143.061
20
-153.657
11
143.156
21
-153.847
0
LINE
8
BLACK
6
CONTINUOUS
10
143.156
20
-153.847
11
143.156
21
-154.419
0
LINE
8
BLACK
6
CONTINUOUS
10
143.156
20
-154.419
11
143.061
21
-154.609
0
LINE
8
BLACK
6
CONTINUOUS
10
143.061
20
-154.609
11
142.965
21
-154.705
0
LINE
8
BLACK
6
CONTINUOUS
10
142.965
20
-154.705
11
142.775
21
-154.8
0
LINE
8
BLACK
6
CONTINUOUS
10
142.775
20
-154.8
11
142.489
21
-154.8
0
LINE
8
BLACK
6
CONTINUOUS
10
144.299
20
-154.8
11
144.108
21
-154.705
0
LINE
8
BLACK
6
CONTINUOUS
10
144.108
20
-154.705
11
144.013
21
-154.514
0
LINE
8
BLACK
6
CONTINUOUS
10
144.013
20
-154.514
11
144.013
21
-152.8
0
LINE
8
BLACK
6
CONTINUOUS
10
145.823
20
-154.705
11
145.632
21
-154.8
0
LINE
8
BLACK
6
CONTINUOUS
10
145.632
20
-154.8
11
145.251
21
-154.8
0
LINE
8
BLACK
6
CONTINUOUS
10
145.251
20
-154.8
11
145.061
21
-154.705
0
LINE
8
BLACK
6
CONTINUOUS
10
145.061
20
-154.705
11
144.965
21
-154.514
0
LINE
8
BLACK
6
CONTINUOUS
10
144.965
20
-154.514
11
144.965
21
-153.752
0
LINE
8
BLACK
6
CONTINUOUS
10
144.965
20
-153.752
11
145.061
21
-153.562
0
LINE
8
BLACK
6
CONTINUOUS
10
145.061
20
-153.562
11
145.251
21
-153.466
0
LINE
8
BLACK
6
CONTINUOUS
10
145.251
20
-153.466
11
145.632
21
-153.466
0
LINE
8
BLACK
6
CONTINUOUS
10
145.632
20
-153.466
11
145.823
21
-153.562
0
LINE
8
BLACK
6
CONTINUOUS
10
145.823
20
-153.562
11
145.918
21
-153.752
0
LINE
8
BLACK
6
CONTINUOUS
10
145.918
20
-153.752
11
145.918
21
-153.943
0
LINE
8
BLACK
6
CONTINUOUS
10
145.918
20
-153.943
11
144.965
21
-154.133
0
LINE
8
BLACK
6
CONTINUOUS
10
146.68
20
-154.705
11
146.87
21
-154.8
0
LINE
8
BLACK
6
CONTINUOUS
10
146.87
20
-154.8
11
147.251
21
-154.8
0
LINE
8
BLACK
6
CONTINUOUS
10
147.251
20
-154.8
11
147.442
21
-154.705
0
LINE
8
BLACK
6
CONTINUOUS
10
147.442
20
-154.705
11
147.537
21
-154.514
0
LINE
8
BLACK
6
CONTINUOUS
10
147.537
20
-154.514
11
147.537
21
-154.419
0
LINE
8
BLACK
6
CONTINUOUS
10
147.537
20
-154.419
11
147.442
21
-154.228
0
LINE
8
BLACK
6
CONTINUOUS
10
147.442
20
-154.228
11
147.251
21
-154.133
0
LINE
8
BLACK
6
CONTINUOUS
10
147.251
20
-154.133
11
146.965
21
-154.133
0
LINE
8
BLACK
6
CONTINUOUS
10
146.965
20
-154.133
11
146.775
21
-154.038
0
LINE
8
BLACK
6
CONTINUOUS
10
146.775
20
-154.038
11
146.68
21
-153.847
0
LINE
8
BLACK
6
CONTINUOUS
10
146.68
20
-153.847
11
146.68
21
-153.752
0
LINE
8
BLACK
6
CONTINUOUS
10
146.68
20
-153.752
11
146.775
21
-153.562
0
LINE
8
BLACK
6
CONTINUOUS
10
146.775
20
-153.562
11
146.965
21
-153.466
0
LINE
8
BLACK
6
CONTINUOUS
10
146.965
20
-153.466
11
147.251
21
-153.466
0
LINE
8
BLACK
6
CONTINUOUS
10
147.251
20
-153.466
11
147.442
21
-153.562
0
LINE
8
BLACK
6
CONTINUOUS
10
148.204
20
-155.562
11
148.299
21
-155.466
0
LINE
8
BLACK
6
CONTINUOUS
10
148.299
20
-155.466
11
148.489
21
-155.181
0
LINE
8
BLACK
6
CONTINUOUS
10
148.489
20
-155.181
11
148.585
21
-154.99
0
LINE
8
BLACK
6
CONTINUOUS
10
148.585
20
-154.99
11
148.68
21
-154.705
0
LINE
8
BLACK
6
CONTINUOUS
10
148.68
20
-154.705
11
148.775
21
-154.228
0
LINE
8
BLACK
6
CONTINUOUS
10
148.775
20
-154.228
11
148.775
21
-153.847
0
LINE
8
BLACK
6
CONTINUOUS
10
148.775
20
-153.847
11
148.68
21
-153.371
0
LINE
8
BLACK
6
CONTINUOUS
10
148.68
20
-153.371
11
148.585
21
-153.085
0
LINE
8
BLACK
6
CONTINUOUS
10
148.585
20
-153.085
11
148.489
21
-152.895
0
LINE
8
BLACK
6
CONTINUOUS
10
148.489
20
-152.895
11
148.299
21
-152.609
0
LINE
8
BLACK
6
CONTINUOUS
10
148.299
20
-152.609
11
148.204
21
-152.514
0
LINE
8
BLACK
6
CONTINUOUS
10
99.6
20
-156.33
11
99.6
21
-157.08
0
LINE
8
BLACK
6
CONTINUOUS
10
99.225
20
-156.705
11
99.975
21
-156.705
0
LINE
8
BLACK
6
CONTINUOUS
10
102.832
20
-155.44
11
103.023
21
-155.44
0
LINE
8
BLACK
6
CONTINUOUS
10
103.023
20
-155.44
11
103.213
21
-155.535
0
LINE
8
BLACK
6
CONTINUOUS
10
103.213
20
-155.535
11
103.308
21
-155.63
0
LINE
8
BLACK
6
CONTINUOUS
10
103.308
20
-155.63
11
103.404
21
-155.821
0
LINE
8
BLACK
6
CONTINUOUS
10
103.404
20
-155.821
11
103.499
21
-156.202
0
LINE
8
BLACK
6
CONTINUOUS
10
103.499
20
-156.202
11
103.499
21
-156.678
0
LINE
8
BLACK
6
CONTINUOUS
10
103.499
20
-156.678
11
103.404
21
-157.059
0
LINE
8
BLACK
6
CONTINUOUS
10
103.404
20
-157.059
11
103.308
21
-157.249
0
LINE
8
BLACK
6
CONTINUOUS
10
103.308
20
-157.249
11
103.213
21
-157.345
0
LINE
8
BLACK
6
CONTINUOUS
10
103.213
20
-157.345
11
103.023
21
-157.44
0
LINE
8
BLACK
6
CONTINUOUS
10
103.023
20
-157.44
11
102.832
21
-157.44
0
LINE
8
BLACK
6
CONTINUOUS
10
102.832
20
-157.44
11
102.642
21
-157.345
0
LINE
8
BLACK
6
CONTINUOUS
10
102.642
20
-157.345
11
102.546
21
-157.249
0
LINE
8
BLACK
6
CONTINUOUS
10
102.546
20
-157.249
11
102.451
21
-157.059
0
LINE
8
BLACK
6
CONTINUOUS
10
102.451
20
-157.059
11
102.356
21
-156.678
0
LINE
8
BLACK
6
CONTINUOUS
10
102.356
20
-156.678
11
102.356
21
-156.202
0
LINE
8
BLACK
6
CONTINUOUS
10
102.356
20
-156.202
11
102.451
21
-155.821
0
LINE
8
BLACK
6
CONTINUOUS
10
102.451
20
-155.821
11
102.546
21
-155.63
0
LINE
8
BLACK
6
CONTINUOUS
10
102.546
20
-155.63
11
102.642
21
-155.535
0
LINE
8
BLACK
6
CONTINUOUS
10
102.642
20
-155.535
11
102.832
21
-155.44
0
LINE
8
BLACK
6
CONTINUOUS
10
104.356
20
-157.249
11
104.451
21
-157.345
0
LINE
8
BLACK
6
CONTINUOUS
10
104.451
20
-157.345
11
104.356
21
-157.44
0
LINE
8
BLACK
6
CONTINUOUS
10
104.356
20
-157.44
11
104.261
21
-157.345
0
LINE
8
BLACK
6
CONTINUOUS
10
104.261
20
-157.345
11
104.356
21
-157.249
0
LINE
8
BLACK
6
CONTINUOUS
10
104.356
20
-157.249
11
104.356
21
-157.44
0
LINE
8
BLACK
6
CONTINUOUS
10
105.118
20
-155.44
11
106.451
21
-155.44
0
LINE
8
BLACK
6
CONTINUOUS
10
106.451
20
-155.44
11
105.594
21
-157.44
0
LINE
8
BLACK
6
CONTINUOUS
10
108.165
20
-155.44
11
107.213
21
-155.44
0
LINE
8
BLACK
6
CONTINUOUS
10
107.213
20
-155.44
11
107.118
21
-156.392
0
LINE
8
BLACK
6
CONTINUOUS
10
107.118
20
-156.392
11
107.213
21
-156.297
0
LINE
8
BLACK
6
CONTINUOUS
10
107.213
20
-156.297
11
107.404
21
-156.202
0
LINE
8
BLACK
6
CONTINUOUS
10
107.404
20
-156.202
11
107.88
21
-156.202
0
LINE
8
BLACK
6
CONTINUOUS
10
107.88
20
-156.202
11
108.07
21
-156.297
0
LINE
8
BLACK
6
CONTINUOUS
10
108.07
20
-156.297
11
108.165
21
-156.392
0
LINE
8
BLACK
6
CONTINUOUS
10
108.165
20
-156.392
11
108.261
21
-156.583
0
LINE
8
BLACK
6
CONTINUOUS
10
108.261
20
-156.583
11
108.261
21
-157.059
0
LINE
8
BLACK
6
CONTINUOUS
10
108.261
20
-157.059
11
108.165
21
-157.249
0
LINE
8
BLACK
6
CONTINUOUS
10
108.165
20
-157.249
11
108.07
21
-157.345
0
LINE
8
BLACK
6
CONTINUOUS
10
108.07
20
-157.345
11
107.88
21
-157.44
0
LINE
8
BLACK
6
CONTINUOUS
10
107.88
20
-157.44
11
107.404
21
-157.44
0
LINE
8
BLACK
6
CONTINUOUS
10
107.404
20
-157.44
11
107.213
21
-157.345
0
LINE
8
BLACK
6
CONTINUOUS
10
107.213
20
-157.345
11
107.118
21
-157.249
0
LINE
8
BLACK
6
CONTINUOUS
10
109.499
20
-155.44
11
109.689
21
-155.44
0
LINE
8
BLACK
6
CONTINUOUS
10
109.689
20
-155.44
11
109.88
21
-155.535
0
LINE
8
BLACK
6
CONTINUOUS
10
109.88
20
-155.535
11
109.975
21
-155.63
0
LINE
8
BLACK
6
CONTINUOUS
10
109.975
20
-155.63
11
110.07
21
-155.821
0
LINE
8
BLACK
6
CONTINUOUS
10
110.07
20
-155.821
11
110.165
21
-156.202
0
LINE
8
BLACK
6
CONTINUOUS
10
110.165
20
-156.202
11
110.165
21
-156.678
0
LINE
8
BLACK
6
CONTINUOUS
10
110.165
20
-156.678
11
110.07
21
-157.059
0
LINE
8
BLACK
6
CONTINUOUS
10
110.07
20
-157.059
11
109.975
21
-157.249
0
LINE
8
BLACK
6
CONTINUOUS
10
109.975
20
-157.249
11
109.88
21
-157.345
0
LINE
8
BLACK
6
CONTINUOUS
10
109.88
20
-157.345
11
109.689
21
-157.44
0
LINE
8
BLACK
6
CONTINUOUS
10
109.689
20
-157.44
11
109.499
21
-157.44
0
LINE
8
BLACK
6
CONTINUOUS
10
109.499
20
-157.44
11
109.308
21
-157.345
0
LINE
8
BLACK
6
CONTINUOUS
10
109.308
20
-157.345
11
109.213
21
-157.249
0
LINE
8
BLACK
6
CONTINUOUS
10
109.213
20
-157.249
11
109.118
21
-157.059
0
LINE
8
BLACK
6
CONTINUOUS
10
109.118
20
-157.059
11
109.023
21
-156.678
0
LINE
8
BLACK
6
CONTINUOUS
10
109.023
20
-156.678
11
109.023
21
-156.202
0
LINE
8
BLACK
6
CONTINUOUS
10
109.023
20
-156.202
11
109.118
21
-155.821
0
LINE
8
BLACK
6
CONTINUOUS
10
109.118
20
-155.821
11
109.213
21
-155.63
0
LINE
8
BLACK
6
CONTINUOUS
10
109.213
20
-155.63
11
109.308
21
-155.535
0
LINE
8
BLACK
6
CONTINUOUS
10
109.308
20
-155.535
11
109.499
21
-155.44
0
LINE
8
BLACK
6
CONTINUOUS
10
111.023
20
-157.44
11
111.023
21
-156.106
0
LINE
8
BLACK
6
CONTINUOUS
10
111.023
20
-156.297
11
111.118
21
-156.202
0
LINE
8
BLACK
6
CONTINUOUS
10
111.118
20
-156.202
11
111.308
21
-156.106
0
LINE
8
BLACK
6
CONTINUOUS
10
111.308
20
-156.106
11
111.594
21
-156.106
0
LINE
8
BLACK
6
CONTINUOUS
10
111.594
20
-156.106
11
111.785
21
-156.202
0
LINE
8
BLACK
6
CONTINUOUS
10
111.785
20
-156.202
11
111.88
21
-156.392
0
LINE
8
BLACK
6
CONTINUOUS
10
111.88
20
-156.392
11
111.88
21
-157.44
0
LINE
8
BLACK
6
CONTINUOUS
10
111.88
20
-156.392
11
111.975
21
-156.202
0
LINE
8
BLACK
6
CONTINUOUS
10
111.975
20
-156.202
11
112.165
21
-156.106
0
LINE
8
BLACK
6
CONTINUOUS
10
112.165
20
-156.106
11
112.451
21
-156.106
0
LINE
8
BLACK
6
CONTINUOUS
10
112.451
20
-156.106
11
112.642
21
-156.202
0
LINE
8
BLACK
6
CONTINUOUS
10
112.642
20
-156.202
11
112.737
21
-156.392
0
LINE
8
BLACK
6
CONTINUOUS
10
112.737
20
-156.392
11
112.737
21
-157.44
0
LINE
8
BLACK
6
CONTINUOUS
10
113.689
20
-157.44
11
113.689
21
-156.106
0
LINE
8
BLACK
6
CONTINUOUS
10
113.689
20
-156.297
11
113.785
21
-156.202
0
LINE
8
BLACK
6
CONTINUOUS
10
113.785
20
-156.202
11
113.975
21
-156.106
0
LINE
8
BLACK
6
CONTINUOUS
10
113.975
20
-156.106
11
114.261
21
-156.106
0
LINE
8
BLACK
6
CONTINUOUS
10
114.261
20
-156.106
11
114.451
21
-156.202
0
LINE
8
BLACK
6
CONTINUOUS
10
114.451
20
-156.202
11
114.546
21
-156.392
0
LINE
8
BLACK
6
CONTINUOUS
10
114.546
20
-156.392
11
114.546
21
-157.44
0
LINE
8
BLACK
6
CONTINUOUS
10
114.546
20
-156.392
11
114.642
21
-156.202
0
LINE
8
BLACK
6
CONTINUOUS
10
114.642
20
-156.202
11
114.832
21
-156.106
0
LINE
8
BLACK
6
CONTINUOUS
10
114.832
20
-156.106
11
115.118
21
-156.106
0
LINE
8
BLACK
6
CONTINUOUS
10
115.118
20
-156.106
11
115.308
21
-156.202
0
LINE
8
BLACK
6
CONTINUOUS
10
115.308
20
-156.202
11
115.404
21
-156.392
0
LINE
8
BLACK
6
CONTINUOUS
10
115.404
20
-156.392
11
115.404
21
-157.44
0
LINE
8
BLACK
6
CONTINUOUS
10
118.985
20
-155.345
11
117.27
21
-157.916
0
LINE
8
BLACK
6
CONTINUOUS
10
121.232
20
-155.44
11
121.423
21
-155.44
0
LINE
8
BLACK
6
CONTINUOUS
10
121.423
20
-155.44
11
121.613
21
-155.535
0
LINE
8
BLACK
6
CONTINUOUS
10
121.613
20
-155.535
11
121.708
21
-155.63
0
LINE
8
BLACK
6
CONTINUOUS
10
121.708
20
-155.63
11
121.804
21
-155.821
0
LINE
8
BLACK
6
CONTINUOUS
10
121.804
20
-155.821
11
121.899
21
-156.202
0
LINE
8
BLACK
6
CONTINUOUS
10
121.899
20
-156.202
11
121.899
21
-156.678
0
LINE
8
BLACK
6
CONTINUOUS
10
121.899
20
-156.678
11
121.804
21
-157.059
0
LINE
8
BLACK
6
CONTINUOUS
10
121.804
20
-157.059
11
121.708
21
-157.249
0
LINE
8
BLACK
6
CONTINUOUS
10
121.708
20
-157.249
11
121.613
21
-157.345
0
LINE
8
BLACK
6
CONTINUOUS
10
121.613
20
-157.345
11
121.423
21
-157.44
0
LINE
8
BLACK
6
CONTINUOUS
10
121.423
20
-157.44
11
121.232
21
-157.44
0
LINE
8
BLACK
6
CONTINUOUS
10
121.232
20
-157.44
11
121.042
21
-157.345
0
LINE
8
BLACK
6
CONTINUOUS
10
121.042
20
-157.345
11
120.946
21
-157.249
0
LINE
8
BLACK
6
CONTINUOUS
10
120.946
20
-157.249
11
120.851
21
-157.059
0
LINE
8
BLACK
6
CONTINUOUS
10
120.851
20
-157.059
11
120.756
21
-156.678
0
LINE
8
BLACK
6
CONTINUOUS
10
120.756
20
-156.678
11
120.756
21
-156.202
0
LINE
8
BLACK
6
CONTINUOUS
10
120.756
20
-156.202
11
120.851
21
-155.821
0
LINE
8
BLACK
6
CONTINUOUS
10
120.851
20
-155.821
11
120.946
21
-155.63
0
LINE
8
BLACK
6
CONTINUOUS
10
120.946
20
-155.63
11
121.042
21
-155.535
0
LINE
8
BLACK
6
CONTINUOUS
10
121.042
20
-155.535
11
121.232
21
-155.44
0
LINE
8
BLACK
6
CONTINUOUS
10
122.756
20
-157.249
11
122.851
21
-157.345
0
LINE
8
BLACK
6
CONTINUOUS
10
122.851
20
-157.345
11
122.756
21
-157.44
0
LINE
8
BLACK
6
CONTINUOUS
10
122.756
20
-157.44
11
122.661
21
-157.345
0
LINE
8
BLACK
6
CONTINUOUS
10
122.661
20
-157.345
11
122.756
21
-157.249
0
LINE
8
BLACK
6
CONTINUOUS
10
122.756
20
-157.249
11
122.756
21
-157.44
0
LINE
8
BLACK
6
CONTINUOUS
10
124.089
20
-155.44
11
124.28
21
-155.44
0
LINE
8
BLACK
6
CONTINUOUS
10
124.28
20
-155.44
11
124.47
21
-155.535
0
LINE
8
BLACK
6
CONTINUOUS
10
124.47
20
-155.535
11
124.565
21
-155.63
0
LINE
8
BLACK
6
CONTINUOUS
10
124.565
20
-155.63
11
124.661
21
-155.821
0
LINE
8
BLACK
6
CONTINUOUS
10
124.661
20
-155.821
11
124.756
21
-156.202
0
LINE
8
BLACK
6
CONTINUOUS
10
124.756
20
-156.202
11
124.756
21
-156.678
0
LINE
8
BLACK
6
CONTINUOUS
10
124.756
20
-156.678
11
124.661
21
-157.059
0
LINE
8
BLACK
6
CONTINUOUS
10
124.661
20
-157.059
11
124.565
21
-157.249
0
LINE
8
BLACK
6
CONTINUOUS
10
124.565
20
-157.249
11
124.47
21
-157.345
0
LINE
8
BLACK
6
CONTINUOUS
10
124.47
20
-157.345
11
124.28
21
-157.44
0
LINE
8
BLACK
6
CONTINUOUS
10
124.28
20
-157.44
11
124.089
21
-157.44
0
LINE
8
BLACK
6
CONTINUOUS
10
124.089
20
-157.44
11
123.899
21
-157.345
0
LINE
8
BLACK
6
CONTINUOUS
10
123.899
20
-157.345
11
123.804
21
-157.249
0
LINE
8
BLACK
6
CONTINUOUS
10
123.804
20
-157.249
11
123.708
21
-157.059
0
LINE
8
BLACK
6
CONTINUOUS
10
123.708
20
-157.059
11
123.613
21
-156.678
0
LINE
8
BLACK
6
CONTINUOUS
10
123.613
20
-156.678
11
123.613
21
-156.202
0
LINE
8
BLACK
6
CONTINUOUS
10
123.613
20
-156.202
11
123.708
21
-155.821
0
LINE
8
BLACK
6
CONTINUOUS
10
123.708
20
-155.821
11
123.804
21
-155.63
0
LINE
8
BLACK
6
CONTINUOUS
10
123.804
20
-155.63
11
123.899
21
-155.535
0
LINE
8
BLACK
6
CONTINUOUS
10
123.899
20
-155.535
11
124.089
21
-155.44
0
LINE
8
BLACK
6
CONTINUOUS
10
125.518
20
-155.63
11
125.613
21
-155.535
0
LINE
8
BLACK
6
CONTINUOUS
10
125.613
20
-155.535
11
125.804
21
-155.44
0
LINE
8
BLACK
6
CONTINUOUS
10
125.804
20
-155.44
11
126.28
21
-155.44
0
LINE
8
BLACK
6
CONTINUOUS
10
126.28
20
-155.44
11
126.47
21
-155.535
0
LINE
8
BLACK
6
CONTINUOUS
10
126.47
20
-155.535
11
126.565
21
-155.63
0
LINE
8
BLACK
6
CONTINUOUS
10
126.565
20
-155.63
11
126.661
21
-155.821
0
LINE
8
BLACK
6
CONTINUOUS
10
126.661
20
-155.821
11
126.661
21
-156.011
0
LINE
8
BLACK
6
CONTINUOUS
10
126.661
20
-156.011
11
126.565
21
-156.297
0
LINE
8
BLACK
6
CONTINUOUS
10
126.565
20
-156.297
11
125.423
21
-157.44
0
LINE
8
BLACK
6
CONTINUOUS
10
125.423
20
-157.44
11
126.661
21
-157.44
0
LINE
8
BLACK
6
CONTINUOUS
10
127.613
20
-157.44
11
127.994
21
-157.44
0
LINE
8
BLACK
6
CONTINUOUS
10
127.994
20
-157.44
11
128.185
21
-157.345
0
LINE
8
BLACK
6
CONTINUOUS
10
128.185
20
-157.345
11
128.28
21
-157.249
0
LINE
8
BLACK
6
CONTINUOUS
10
128.28
20
-157.249
11
128.47
21
-156.964
0
LINE
8
BLACK
6
CONTINUOUS
10
128.47
20
-156.964
11
128.565
21
-156.583
0
LINE
8
BLACK
6
CONTINUOUS
10
128.565
20
-156.583
11
128.565
21
-155.821
0
LINE
8
BLACK
6
CONTINUOUS
10
128.565
20
-155.821
11
128.47
21
-155.63
0
LINE
8
BLACK
6
CONTINUOUS
10
128.47
20
-155.63
11
128.375
21
-155.535
0
LINE
8
BLACK
6
CONTINUOUS
10
128.375
20
-155.535
11
128.185
21
-155.44
0
LINE
8
BLACK
6
CONTINUOUS
10
128.185
20
-155.44
11
127.804
21
-155.44
0
LINE
8
BLACK
6
CONTINUOUS
10
127.804
20
-155.44
11
127.613
21
-155.535
0
LINE
8
BLACK
6
CONTINUOUS
10
127.613
20
-155.535
11
127.518
21
-155.63
0
LINE
8
BLACK
6
CONTINUOUS
10
127.518
20
-155.63
11
127.423
21
-155.821
0
LINE
8
BLACK
6
CONTINUOUS
10
127.423
20
-155.821
11
127.423
21
-156.297
0
LINE
8
BLACK
6
CONTINUOUS
10
127.423
20
-156.297
11
127.518
21
-156.487
0
LINE
8
BLACK
6
CONTINUOUS
10
127.518
20
-156.487
11
127.613
21
-156.583
0
LINE
8
BLACK
6
CONTINUOUS
10
127.613
20
-156.583
11
127.804
21
-156.678
0
LINE
8
BLACK
6
CONTINUOUS
10
127.804
20
-156.678
11
128.185
21
-156.678
0
LINE
8
BLACK
6
CONTINUOUS
10
128.185
20
-156.678
11
128.375
21
-156.583
0
LINE
8
BLACK
6
CONTINUOUS
10
128.375
20
-156.583
11
128.47
21
-156.487
0
LINE
8
BLACK
6
CONTINUOUS
10
128.47
20
-156.487
11
128.565
21
-156.297
0
LINE
8
BLACK
6
CONTINUOUS
10
130.375
20
-155.44
11
129.423
21
-155.44
0
LINE
8
BLACK
6
CONTINUOUS
10
129.423
20
-155.44
11
129.327
21
-156.392
0
LINE
8
BLACK
6
CONTINUOUS
10
129.327
20
-156.392
11
129.423
21
-156.297
0
LINE
8
BLACK
6
CONTINUOUS
10
129.423
20
-156.297
11
129.613
21
-156.202
0
LINE
8
BLACK
6
CONTINUOUS
10
129.613
20
-156.202
11
130.089
21
-156.202
0
LINE
8
BLACK
6
CONTINUOUS
10
130.089
20
-156.202
11
130.28
21
-156.297
0
LINE
8
BLACK
6
CONTINUOUS
10
130.28
20
-156.297
11
130.375
21
-156.392
0
LINE
8
BLACK
6
CONTINUOUS
10
130.375
20
-156.392
11
130.47
21
-156.583
0
LINE
8
BLACK
6
CONTINUOUS
10
130.47
20
-156.583
11
130.47
21
-157.059
0
LINE
8
BLACK
6
CONTINUOUS
10
130.47
20
-157.059
11
130.375
21
-157.249
0
LINE
8
BLACK
6
CONTINUOUS
10
130.375
20
-157.249
11
130.28
21
-157.345
0
LINE
8
BLACK
6
CONTINUOUS
10
130.28
20
-157.345
11
130.089
21
-157.44
0
LINE
8
BLACK
6
CONTINUOUS
10
130.089
20
-157.44
11
129.613
21
-157.44
0
LINE
8
BLACK
6
CONTINUOUS
10
129.613
20
-157.44
11
129.423
21
-157.345
0
LINE
8
BLACK
6
CONTINUOUS
10
129.423
20
-157.345
11
129.327
21
-157.249
0
LINE
8
BLACK
6
CONTINUOUS
10
131.232
20
-155.44
11
131.232
21
-155.821
0
LINE
8
BLACK
6
CONTINUOUS
10
131.994
20
-155.44
11
131.994
21
-155.821
0
LINE
8
BLACK
6
CONTINUOUS
10
134.623
20
-158.202
11
134.527
21
-158.106
0
LINE
8
BLACK
6
CONTINUOUS
10
134.527
20
-158.106
11
134.337
21
-157.821
0
LINE
8
BLACK
6
CONTINUOUS
10
134.337
20
-157.821
11
134.242
21
-157.63
0
LINE
8
BLACK
6
CONTINUOUS
10
134.242
20
-157.63
11
134.146
21
-157.345
0
LINE
8
BLACK
6
CONTINUOUS
10
134.146
20
-157.345
11
134.051
21
-156.868
0
LINE
8
BLACK
6
CONTINUOUS
10
134.051
20
-156.868
11
134.051
21
-156.487
0
LINE
8
BLACK
6
CONTINUOUS
10
134.051
20
-156.487
11
134.146
21
-156.011
0
LINE
8
BLACK
6
CONTINUOUS
10
134.146
20
-156.011
11
134.242
21
-155.725
0
LINE
8
BLACK
6
CONTINUOUS
10
134.242
20
-155.725
11
134.337
21
-155.535
0
LINE
8
BLACK
6
CONTINUOUS
10
134.337
20
-155.535
11
134.527
21
-155.249
0
LINE
8
BLACK
6
CONTINUOUS
10
134.527
20
-155.249
11
134.623
21
-155.154
0
LINE
8
BLACK
6
CONTINUOUS
10
135.194
20
-155.44
11
136.432
21
-155.44
0
LINE
8
BLACK
6
CONTINUOUS
10
136.432
20
-155.44
11
135.765
21
-156.202
0
LINE
8
BLACK
6
CONTINUOUS
10
135.765
20
-156.202
11
136.051
21
-156.202
0
LINE
8
BLACK
6
CONTINUOUS
10
136.051
20
-156.202
11
136.242
21
-156.297
0
LINE
8
BLACK
6
CONTINUOUS
10
136.242
20
-156.297
11
136.337
21
-156.392
0
LINE
8
BLACK
6
CONTINUOUS
10
136.337
20
-156.392
11
136.432
21
-156.583
0
LINE
8
BLACK
6
CONTINUOUS
10
136.432
20
-156.583
11
136.432
21
-157.059
0
LINE
8
BLACK
6
CONTINUOUS
10
136.432
20
-157.059
11
136.337
21
-157.249
0
LINE
8
BLACK
6
CONTINUOUS
10
136.337
20
-157.249
11
136.242
21
-157.345
0
LINE
8
BLACK
6
CONTINUOUS
10
136.242
20
-157.345
11
136.051
21
-157.44
0
LINE
8
BLACK
6
CONTINUOUS
10
136.051
20
-157.44
11
135.48
21
-157.44
0
LINE
8
BLACK
6
CONTINUOUS
10
135.48
20
-157.44
11
135.289
21
-157.345
0
LINE
8
BLACK
6
CONTINUOUS
10
135.289
20
-157.345
11
135.194
21
-157.249
0
LINE
8
BLACK
6
CONTINUOUS
10
138.489
20
-157.44
11
138.489
21
-155.44
0
LINE
8
BLACK
6
CONTINUOUS
10
139.346
20
-157.44
11
139.346
21
-156.392
0
LINE
8
BLACK
6
CONTINUOUS
10
139.346
20
-156.392
11
139.251
21
-156.202
0
LINE
8
BLACK
6
CONTINUOUS
10
139.251
20
-156.202
11
139.061
21
-156.106
0
LINE
8
BLACK
6
CONTINUOUS
10
139.061
20
-156.106
11
138.775
21
-156.106
0
LINE
8
BLACK
6
CONTINUOUS
10
138.775
20
-156.106
11
138.585
21
-156.202
0
LINE
8
BLACK
6
CONTINUOUS
10
138.585
20
-156.202
11
138.489
21
-156.297
0
LINE
8
BLACK
6
CONTINUOUS
10
140.585
20
-157.44
11
140.394
21
-157.345
0
LINE
8
BLACK
6
CONTINUOUS
10
140.394
20
-157.345
11
140.299
21
-157.249
0
LINE
8
BLACK
6
CONTINUOUS
10
140.299
20
-157.249
11
140.204
21
-157.059
0
LINE
8
BLACK
6
CONTINUOUS
10
140.204
20
-157.059
11
140.204
21
-156.487
0
LINE
8
BLACK
6
CONTINUOUS
10
140.204
20
-156.487
11
140.299
21
-156.297
0
LINE
8
BLACK
6
CONTINUOUS
10
140.299
20
-156.297
11
140.394
21
-156.202
0
LINE
8
BLACK
6
CONTINUOUS
10
140.394
20
-156.202
11
140.585
21
-156.106
0
LINE
8
BLACK
6
CONTINUOUS
10
140.585
20
-156.106
11
140.87
21
-156.106
0
LINE
8
BLACK
6
CONTINUOUS
10
140.87
20
-156.106
11
141.061
21
-156.202
0
LINE
8
BLACK
6
CONTINUOUS
10
141.061
20
-156.202
11
141.156
21
-156.297
0
LINE
8
BLACK
6
CONTINUOUS
10
141.156
20
-156.297
11
141.251
21
-156.487
0
LINE
8
BLACK
6
CONTINUOUS
10
141.251
20
-156.487
11
141.251
21
-157.059
0
LINE
8
BLACK
6
CONTINUOUS
10
141.251
20
-157.059
11
141.156
21
-157.249
0
LINE
8
BLACK
6
CONTINUOUS
10
141.156
20
-157.249
11
141.061
21
-157.345
0
LINE
8
BLACK
6
CONTINUOUS
10
141.061
20
-157.345
11
140.87
21
-157.44
0
LINE
8
BLACK
6
CONTINUOUS
10
140.87
20
-157.44
11
140.585
21
-157.44
0
LINE
8
BLACK
6
CONTINUOUS
10
142.394
20
-157.44
11
142.204
21
-157.345
0
LINE
8
BLACK
6
CONTINUOUS
10
142.204
20
-157.345
11
142.108
21
-157.154
0
LINE
8
BLACK
6
CONTINUOUS
10
142.108
20
-157.154
11
142.108
21
-155.44
0
LINE
8
BLACK
6
CONTINUOUS
10
143.918
20
-157.345
11
143.727
21
-157.44
0
LINE
8
BLACK
6
CONTINUOUS
10
143.727
20
-157.44
11
143.346
21
-157.44
0
LINE
8
BLACK
6
CONTINUOUS
10
143.346
20
-157.44
11
143.156
21
-157.345
0
LINE
8
BLACK
6
CONTINUOUS
10
143.156
20
-157.345
11
143.061
21
-157.154
0
LINE
8
BLACK
6
CONTINUOUS
10
143.061
20
-157.154
11
143.061
21
-156.392
0
LINE
8
BLACK
6
CONTINUOUS
10
143.061
20
-156.392
11
143.156
21
-156.202
0
LINE
8
BLACK
6
CONTINUOUS
10
143.156
20
-156.202
11
143.346
21
-156.106
0
LINE
8
BLACK
6
CONTINUOUS
10
143.346
20
-156.106
11
143.727
21
-156.106
0
LINE
8
BLACK
6
CONTINUOUS
10
143.727
20
-156.106
11
143.918
21
-156.202
0
LINE
8
BLACK
6
CONTINUOUS
10
143.918
20
-156.202
11
144.013
21
-156.392
0
LINE
8
BLACK
6
CONTINUOUS
10
144.013
20
-156.392
11
144.013
21
-156.583
0
LINE
8
BLACK
6
CONTINUOUS
10
144.013
20
-156.583
11
143.061
21
-156.773
0
LINE
8
BLACK
6
CONTINUOUS
10
144.775
20
-157.345
11
144.965
21
-157.44
0
LINE
8
BLACK
6
CONTINUOUS
10
144.965
20
-157.44
11
145.346
21
-157.44
0
LINE
8
BLACK
6
CONTINUOUS
10
145.346
20
-157.44
11
145.537
21
-157.345
0
LINE
8
BLACK
6
CONTINUOUS
10
145.537
20
-157.345
11
145.632
21
-157.154
0
LINE
8
BLACK
6
CONTINUOUS
10
145.632
20
-157.154
11
145.632
21
-157.059
0
LINE
8
BLACK
6
CONTINUOUS
10
145.632
20
-157.059
11
145.537
21
-156.868
0
LINE
8
BLACK
6
CONTINUOUS
10
145.537
20
-156.868
11
145.346
21
-156.773
0
LINE
8
BLACK
6
CONTINUOUS
10
145.346
20
-156.773
11
145.061
21
-156.773
0
LINE
8
BLACK
6
CONTINUOUS
10
145.061
20
-156.773
11
144.87
21
-156.678
0
LINE
8
BLACK
6
CONTINUOUS
10
144.87
20
-156.678
11
144.775
21
-156.487
0
LINE
8
BLACK
6
CONTINUOUS
10
144.775
20
-156.487
11
144.775
21
-156.392
0
LINE
8
BLACK
6
CONTINUOUS
10
144.775
20
-156.392
11
144.87
21
-156.202
0
LINE
8
BLACK
6
CONTINUOUS
10
144.87
20
-156.202
11
145.061
21
-156.106
0
LINE
8
BLACK
6
CONTINUOUS
10
145.061
20
-156.106
11
145.346
21
-156.106
0
LINE
8
BLACK
6
CONTINUOUS
10
145.346
20
-156.106
11
145.537
21
-156.202
0
LINE
8
BLACK
6
CONTINUOUS
10
146.299
20
-158.202
11
146.394
21
-158.106
0
LINE
8
BLACK
6
CONTINUOUS
10
146.394
20
-158.106
11
146.585
21
-157.821
0
LINE
8
BLACK
6
CONTINUOUS
10
146.585
20
-157.821
11
146.68
21
-157.63
0
LINE
8
BLACK
6
CONTINUOUS
10
146.68
20
-157.63
11
146.775
21
-157.345
0
LINE
8
BLACK
6
CONTINUOUS
10
146.775
20
-157.345
11
146.87
21
-156.868
0
LINE
8
BLACK
6
CONTINUOUS
10
146.87
20
-156.868
11
146.87
21
-156.487
0
LINE
8
BLACK
6
CONTINUOUS
10
146.87
20
-156.487
11
146.775
21
-156.011
0
LINE
8
BLACK
6
CONTINUOUS
10
146.775
20
-156.011
11
146.68
21
-155.725
0
LINE
8
BLACK
6
CONTINUOUS
10
146.68
20
-155.725
11
146.585
21
-155.535
0
LINE
8
BLACK
6
CONTINUOUS
10
146.585
20
-155.535
11
146.394
21
-155.249
0
LINE
8
BLACK
6
CONTINUOUS
10
146.394
20
-155.249
11
146.299
21
-155.154
0
LINE
8
BLACK
6
CONTINUOUS
10
99.8578
20
-159.628
11
99.8578
21
-159.062
0
LINE
8
BLACK
6
CONTINUOUS
10
99.8578
20
-159.062
11
99.2922
21
-159.062
0
LINE
8
BLACK
6
CONTINUOUS
10
99.2922
20
-159.062
11
99.2922
21
-159.628
0
LINE
8
BLACK
6
CONTINUOUS
10
99.2922
20
-159.628
11
99.8578
21
-159.628
0
LINE
8
BLACK
6
CONTINUOUS
10
102.832
20
-158.08
11
103.023
21
-158.08
0
LINE
8
BLACK
6
CONTINUOUS
10
103.023
20
-158.08
11
103.213
21
-158.175
0
LINE
8
BLACK
6
CONTINUOUS
10
103.213
20
-158.175
11
103.308
21
-158.27
0
LINE
8
BLACK
6
CONTINUOUS
10
103.308
20
-158.27
11
103.404
21
-158.461
0
LINE
8
BLACK
6
CONTINUOUS
10
103.404
20
-158.461
11
103.499
21
-158.842
0
LINE
8
BLACK
6
CONTINUOUS
10
103.499
20
-158.842
11
103.499
21
-159.318
0
LINE
8
BLACK
6
CONTINUOUS
10
103.499
20
-159.318
11
103.404
21
-159.699
0
LINE
8
BLACK
6
CONTINUOUS
10
103.404
20
-159.699
11
103.308
21
-159.889
0
LINE
8
BLACK
6
CONTINUOUS
10
103.308
20
-159.889
11
103.213
21
-159.985
0
LINE
8
BLACK
6
CONTINUOUS
10
103.213
20
-159.985
11
103.023
21
-160.08
0
LINE
8
BLACK
6
CONTINUOUS
10
103.023
20
-160.08
11
102.832
21
-160.08
0
LINE
8
BLACK
6
CONTINUOUS
10
102.832
20
-160.08
11
102.642
21
-159.985
0
LINE
8
BLACK
6
CONTINUOUS
10
102.642
20
-159.985
11
102.546
21
-159.889
0
LINE
8
BLACK
6
CONTINUOUS
10
102.546
20
-159.889
11
102.451
21
-159.699
0
LINE
8
BLACK
6
CONTINUOUS
10
102.451
20
-159.699
11
102.356
21
-159.318
0
LINE
8
BLACK
6
CONTINUOUS
10
102.356
20
-159.318
11
102.356
21
-158.842
0
LINE
8
BLACK
6
CONTINUOUS
10
102.356
20
-158.842
11
102.451
21
-158.461
0
LINE
8
BLACK
6
CONTINUOUS
10
102.451
20
-158.461
11
102.546
21
-158.27
0
LINE
8
BLACK
6
CONTINUOUS
10
102.546
20
-158.27
11
102.642
21
-158.175
0
LINE
8
BLACK
6
CONTINUOUS
10
102.642
20
-158.175
11
102.832
21
-158.08
0
LINE
8
BLACK
6
CONTINUOUS
10
104.356
20
-159.889
11
104.451
21
-159.985
0
LINE
8
BLACK
6
CONTINUOUS
10
104.451
20
-159.985
11
104.356
21
-160.08
0
LINE
8
BLACK
6
CONTINUOUS
10
104.356
20
-160.08
11
104.261
21
-159.985
0
LINE
8
BLACK
6
CONTINUOUS
10
104.261
20
-159.985
11
104.356
21
-159.889
0
LINE
8
BLACK
6
CONTINUOUS
10
104.356
20
-159.889
11
104.356
21
-160.08
0
LINE
8
BLACK
6
CONTINUOUS
10
105.594
20
-158.937
11
105.404
21
-158.842
0
LINE
8
BLACK
6
CONTINUOUS
10
105.404
20
-158.842
11
105.308
21
-158.746
0
LINE
8
BLACK
6
CONTINUOUS
10
105.308
20
-158.746
11
105.213
21
-158.556
0
LINE
8
BLACK
6
CONTINUOUS
10
105.213
20
-158.556
11
105.213
21
-158.461
0
LINE
8
BLACK
6
CONTINUOUS
10
105.213
20
-158.461
11
105.308
21
-158.27
0
LINE
8
BLACK
6
CONTINUOUS
10
105.308
20
-158.27
11
105.404
21
-158.175
0
LINE
8
BLACK
6
CONTINUOUS
10
105.404
20
-158.175
11
105.594
21
-158.08
0
LINE
8
BLACK
6
CONTINUOUS
10
105.594
20
-158.08
11
105.975
21
-158.08
0
LINE
8
BLACK
6
CONTINUOUS
10
105.975
20
-158.08
11
106.165
21
-158.175
0
LINE
8
BLACK
6
CONTINUOUS
10
106.165
20
-158.175
11
106.261
21
-158.27
0
LINE
8
BLACK
6
CONTINUOUS
10
106.261
20
-158.27
11
106.356
21
-158.461
0
LINE
8
BLACK
6
CONTINUOUS
10
106.356
20
-158.461
11
106.356
21
-158.556
0
LINE
8
BLACK
6
CONTINUOUS
10
106.356
20
-158.556
11
106.261
21
-158.746
0
LINE
8
BLACK
6
CONTINUOUS
10
106.261
20
-158.746
11
106.165
21
-158.842
0
LINE
8
BLACK
6
CONTINUOUS
10
106.165
20
-158.842
11
105.975
21
-158.937
0
LINE
8
BLACK
6
CONTINUOUS
10
105.975
20
-158.937
11
105.594
21
-158.937
0
LINE
8
BLACK
6
CONTINUOUS
10
105.594
20
-158.937
11
105.404
21
-159.032
0
LINE
8
BLACK
6
CONTINUOUS
10
105.404
20
-159.032
11
105.308
21
-159.127
0
LINE
8
BLACK
6
CONTINUOUS
10
105.308
20
-159.127
11
105.213
21
-159.318
0
LINE
8
BLACK
6
CONTINUOUS
10
105.213
20
-159.318
11
105.213
21
-159.699
0
LINE
8
BLACK
6
CONTINUOUS
10
105.213
20
-159.699
11
105.308
21
-159.889
0
LINE
8
BLACK
6
CONTINUOUS
10
105.308
20
-159.889
11
105.404
21
-159.985
0
LINE
8
BLACK
6
CONTINUOUS
10
105.404
20
-159.985
11
105.594
21
-160.08
0
LINE
8
BLACK
6
CONTINUOUS
10
105.594
20
-160.08
11
105.975
21
-160.08
0
LINE
8
BLACK
6
CONTINUOUS
10
105.975
20
-160.08
11
106.165
21
-159.985
0
LINE
8
BLACK
6
CONTINUOUS
10
106.165
20
-159.985
11
106.261
21
-159.889
0
LINE
8
BLACK
6
CONTINUOUS
10
106.261
20
-159.889
11
106.356
21
-159.699
0
LINE
8
BLACK
6
CONTINUOUS
10
106.356
20
-159.699
11
106.356
21
-159.318
0
LINE
8
BLACK
6
CONTINUOUS
10
106.356
20
-159.318
11
106.261
21
-159.127
0
LINE
8
BLACK
6
CONTINUOUS
10
106.261
20
-159.127
11
106.165
21
-159.032
0
LINE
8
BLACK
6
CONTINUOUS
10
106.165
20
-159.032
11
105.975
21
-158.937
0
LINE
8
BLACK
6
CONTINUOUS
10
107.594
20
-158.08
11
107.785
21
-158.08
0
LINE
8
BLACK
6
CONTINUOUS
10
107.785
20
-158.08
11
107.975
21
-158.175
0
LINE
8
BLACK
6
CONTINUOUS
10
107.975
20
-158.175
11
108.07
21
-158.27
0
LINE
8
BLACK
6
CONTINUOUS
10
108.07
20
-158.27
11
108.165
21
-158.461
0
LINE
8
BLACK
6
CONTINUOUS
10
108.165
20
-158.461
11
108.261
21
-158.842
0
LINE
8
BLACK
6
CONTINUOUS
10
108.261
20
-158.842
11
108.261
21
-159.318
0
LINE
8
BLACK
6
CONTINUOUS
10
108.261
20
-159.318
11
108.165
21
-159.699
0
LINE
8
BLACK
6
CONTINUOUS
10
108.165
20
-159.699
11
108.07
21
-159.889
0
LINE
8
BLACK
6
CONTINUOUS
10
108.07
20
-159.889
11
107.975
21
-159.985
0
LINE
8
BLACK
6
CONTINUOUS
10
107.975
20
-159.985
11
107.785
21
-160.08
0
LINE
8
BLACK
6
CONTINUOUS
10
107.785
20
-160.08
11
107.594
21
-160.08
0
LINE
8
BLACK
6
CONTINUOUS
10
107.594
20
-160.08
11
107.404
21
-159.985
0
LINE
8
BLACK
6
CONTINUOUS
10
107.404
20
-159.985
11
107.308
21
-159.889
0
LINE
8
BLACK
6
CONTINUOUS
10
107.308
20
-159.889
11
107.213
21
-159.699
0
LINE
8
BLACK
6
CONTINUOUS
10
107.213
20
-159.699
11
107.118
21
-159.318
0
LINE
8
BLACK
6
CONTINUOUS
10
107.118
20
-159.318
11
107.118
21
-158.842
0
LINE
8
BLACK
6
CONTINUOUS
10
107.118
20
-158.842
11
107.213
21
-158.461
0
LINE
8
BLACK
6
CONTINUOUS
10
107.213
20
-158.461
11
107.308
21
-158.27
0
LINE
8
BLACK
6
CONTINUOUS
10
107.308
20
-158.27
11
107.404
21
-158.175
0
LINE
8
BLACK
6
CONTINUOUS
10
107.404
20
-158.175
11
107.594
21
-158.08
0
LINE
8
BLACK
6
CONTINUOUS
10
109.499
20
-158.08
11
109.689
21
-158.08
0
LINE
8
BLACK
6
CONTINUOUS
10
109.689
20
-158.08
11
109.88
21
-158.175
0
LINE
8
BLACK
6
CONTINUOUS
10
109.88
20
-158.175
11
109.975
21
-158.27
0
LINE
8
BLACK
6
CONTINUOUS
10
109.975
20
-158.27
11
110.07
21
-158.461
0
LINE
8
BLACK
6
CONTINUOUS
10
110.07
20
-158.461
11
110.165
21
-158.842
0
LINE
8
BLACK
6
CONTINUOUS
10
110.165
20
-158.842
11
110.165
21
-159.318
0
LINE
8
BLACK
6
CONTINUOUS
10
110.165
20
-159.318
11
110.07
21
-159.699
0
LINE
8
BLACK
6
CONTINUOUS
10
110.07
20
-159.699
11
109.975
21
-159.889
0
LINE
8
BLACK
6
CONTINUOUS
10
109.975
20
-159.889
11
109.88
21
-159.985
0
LINE
8
BLACK
6
CONTINUOUS
10
109.88
20
-159.985
11
109.689
21
-160.08
0
LINE
8
BLACK
6
CONTINUOUS
10
109.689
20
-160.08
11
109.499
21
-160.08
0
LINE
8
BLACK
6
CONTINUOUS
10
109.499
20
-160.08
11
109.308
21
-159.985
0
LINE
8
BLACK
6
CONTINUOUS
10
109.308
20
-159.985
11
109.213
21
-159.889
0
LINE
8
BLACK
6
CONTINUOUS
10
109.213
20
-159.889
11
109.118
21
-159.699
0
LINE
8
BLACK
6
CONTINUOUS
10
109.118
20
-159.699
11
109.023
21
-159.318
0
LINE
8
BLACK
6
CONTINUOUS
10
109.023
20
-159.318
11
109.023
21
-158.842
0
LINE
8
BLACK
6
CONTINUOUS
10
109.023
20
-158.842
11
109.118
21
-158.461
0
LINE
8
BLACK
6
CONTINUOUS
10
109.118
20
-158.461
11
109.213
21
-158.27
0
LINE
8
BLACK
6
CONTINUOUS
10
109.213
20
-158.27
11
109.308
21
-158.175
0
LINE
8
BLACK
6
CONTINUOUS
10
109.308
20
-158.175
11
109.499
21
-158.08
0
LINE
8
BLACK
6
CONTINUOUS
10
111.023
20
-160.08
11
111.023
21
-158.746
0
LINE
8
BLACK
6
CONTINUOUS
10
111.023
20
-158.937
11
111.118
21
-158.842
0
LINE
8
BLACK
6
CONTINUOUS
10
111.118
20
-158.842
11
111.308
21
-158.746
0
LINE
8
BLACK
6
CONTINUOUS
10
111.308
20
-158.746
11
111.594
21
-158.746
0
LINE
8
BLACK
6
CONTINUOUS
10
111.594
20
-158.746
11
111.785
21
-158.842
0
LINE
8
BLACK
6
CONTINUOUS
10
111.785
20
-158.842
11
111.88
21
-159.032
0
LINE
8
BLACK
6
CONTINUOUS
10
111.88
20
-159.032
11
111.88
21
-160.08
0
LINE
8
BLACK
6
CONTINUOUS
10
111.88
20
-159.032
11
111.975
21
-158.842
0
LINE
8
BLACK
6
CONTINUOUS
10
111.975
20
-158.842
11
112.165
21
-158.746
0
LINE
8
BLACK
6
CONTINUOUS
10
112.165
20
-158.746
11
112.451
21
-158.746
0
LINE
8
BLACK
6
CONTINUOUS
10
112.451
20
-158.746
11
112.642
21
-158.842
0
LINE
8
BLACK
6
CONTINUOUS
10
112.642
20
-158.842
11
112.737
21
-159.032
0
LINE
8
BLACK
6
CONTINUOUS
10
112.737
20
-159.032
11
112.737
21
-160.08
0
LINE
8
BLACK
6
CONTINUOUS
10
113.689
20
-160.08
11
113.689
21
-158.746
0
LINE
8
BLACK
6
CONTINUOUS
10
113.689
20
-158.937
11
113.785
21
-158.842
0
LINE
8
BLACK
6
CONTINUOUS
10
113.785
20
-158.842
11
113.975
21
-158.746
0
LINE
8
BLACK
6
CONTINUOUS
10
113.975
20
-158.746
11
114.261
21
-158.746
0
LINE
8
BLACK
6
CONTINUOUS
10
114.261
20
-158.746
11
114.451
21
-158.842
0
LINE
8
BLACK
6
CONTINUOUS
10
114.451
20
-158.842
11
114.546
21
-159.032
0
LINE
8
BLACK
6
CONTINUOUS
10
114.546
20
-159.032
11
114.546
21
-160.08
0
LINE
8
BLACK
6
CONTINUOUS
10
114.546
20
-159.032
11
114.642
21
-158.842
0
LINE
8
BLACK
6
CONTINUOUS
10
114.642
20
-158.842
11
114.832
21
-158.746
0
LINE
8
BLACK
6
CONTINUOUS
10
114.832
20
-158.746
11
115.118
21
-158.746
0
LINE
8
BLACK
6
CONTINUOUS
10
115.118
20
-158.746
11
115.308
21
-158.842
0
LINE
8
BLACK
6
CONTINUOUS
10
115.308
20
-158.842
11
115.404
21
-159.032
0
LINE
8
BLACK
6
CONTINUOUS
10
115.404
20
-159.032
11
115.404
21
-160.08
0
LINE
8
BLACK
6
CONTINUOUS
10
118.985
20
-157.985
11
117.27
21
-160.556
0
LINE
8
BLACK
6
CONTINUOUS
10
121.232
20
-158.08
11
121.423
21
-158.08
0
LINE
8
BLACK
6
CONTINUOUS
10
121.423
20
-158.08
11
121.613
21
-158.175
0
LINE
8
BLACK
6
CONTINUOUS
10
121.613
20
-158.175
11
121.708
21
-158.27
0
LINE
8
BLACK
6
CONTINUOUS
10
121.708
20
-158.27
11
121.804
21
-158.461
0
LINE
8
BLACK
6
CONTINUOUS
10
121.804
20
-158.461
11
121.899
21
-158.842
0
LINE
8
BLACK
6
CONTINUOUS
10
121.899
20
-158.842
11
121.899
21
-159.318
0
LINE
8
BLACK
6
CONTINUOUS
10
121.899
20
-159.318
11
121.804
21
-159.699
0
LINE
8
BLACK
6
CONTINUOUS
10
121.804
20
-159.699
11
121.708
21
-159.889
0
LINE
8
BLACK
6
CONTINUOUS
10
121.708
20
-159.889
11
121.613
21
-159.985
0
LINE
8
BLACK
6
CONTINUOUS
10
121.613
20
-159.985
11
121.423
21
-160.08
0
LINE
8
BLACK
6
CONTINUOUS
10
121.423
20
-160.08
11
121.232
21
-160.08
0
LINE
8
BLACK
6
CONTINUOUS
10
121.232
20
-160.08
11
121.042
21
-159.985
0
LINE
8
BLACK
6
CONTINUOUS
10
121.042
20
-159.985
11
120.946
21
-159.889
0
LINE
8
BLACK
6
CONTINUOUS
10
120.946
20
-159.889
11
120.851
21
-159.699
0
LINE
8
BLACK
6
CONTINUOUS
10
120.851
20
-159.699
11
120.756
21
-159.318
0
LINE
8
BLACK
6
CONTINUOUS
10
120.756
20
-159.318
11
120.756
21
-158.842
0
LINE
8
BLACK
6
CONTINUOUS
10
120.756
20
-158.842
11
120.851
21
-158.461
0
LINE
8
BLACK
6
CONTINUOUS
10
120.851
20
-158.461
11
120.946
21
-158.27
0
LINE
8
BLACK
6
CONTINUOUS
10
120.946
20
-158.27
11
121.042
21
-158.175
0
LINE
8
BLACK
6
CONTINUOUS
10
121.042
20
-158.175
11
121.232
21
-158.08
0
LINE
8
BLACK
6
CONTINUOUS
10
122.756
20
-159.889
11
122.851
21
-159.985
0
LINE
8
BLACK
6
CONTINUOUS
10
122.851
20
-159.985
11
122.756
21
-160.08
0
LINE
8
BLACK
6
CONTINUOUS
10
122.756
20
-160.08
11
122.661
21
-159.985
0
LINE
8
BLACK
6
CONTINUOUS
10
122.661
20
-159.985
11
122.756
21
-159.889
0
LINE
8
BLACK
6
CONTINUOUS
10
122.756
20
-159.889
11
122.756
21
-160.08
0
LINE
8
BLACK
6
CONTINUOUS
10
124.089
20
-158.08
11
124.28
21
-158.08
0
LINE
8
BLACK
6
CONTINUOUS
10
124.28
20
-158.08
11
124.47
21
-158.175
0
LINE
8
BLACK
6
CONTINUOUS
10
124.47
20
-158.175
11
124.565
21
-158.27
0
LINE
8
BLACK
6
CONTINUOUS
10
124.565
20
-158.27
11
124.661
21
-158.461
0
LINE
8
BLACK
6
CONTINUOUS
10
124.661
20
-158.461
11
124.756
21
-158.842
0
LINE
8
BLACK
6
CONTINUOUS
10
124.756
20
-158.842
11
124.756
21
-159.318
0
LINE
8
BLACK
6
CONTINUOUS
10
124.756
20
-159.318
11
124.661
21
-159.699
0
LINE
8
BLACK
6
CONTINUOUS
10
124.661
20
-159.699
11
124.565
21
-159.889
0
LINE
8
BLACK
6
CONTINUOUS
10
124.565
20
-159.889
11
124.47
21
-159.985
0
LINE
8
BLACK
6
CONTINUOUS
10
124.47
20
-159.985
11
124.28
21
-160.08
0
LINE
8
BLACK
6
CONTINUOUS
10
124.28
20
-160.08
11
124.089
21
-160.08
0
LINE
8
BLACK
6
CONTINUOUS
10
124.089
20
-160.08
11
123.899
21
-159.985
0
LINE
8
BLACK
6
CONTINUOUS
10
123.899
20
-159.985
11
123.804
21
-159.889
0
LINE
8
BLACK
6
CONTINUOUS
10
123.804
20
-159.889
11
123.708
21
-159.699
0
LINE
8
BLACK
6
CONTINUOUS
10
123.708
20
-159.699
11
123.613
21
-159.318
0
LINE
8
BLACK
6
CONTINUOUS
10
123.613
20
-159.318
11
123.613
21
-158.842
0
LINE
8
BLACK
6
CONTINUOUS
10
123.613
20
-158.842
11
123.708
21
-158.461
0
LINE
8
BLACK
6
CONTINUOUS
10
123.708
20
-158.461
11
123.804
21
-158.27
0
LINE
8
BLACK
6
CONTINUOUS
10
123.804
20
-158.27
11
123.899
21
-158.175
0
LINE
8
BLACK
6
CONTINUOUS
10
123.899
20
-158.175
11
124.089
21
-158.08
0
LINE
8
BLACK
6
CONTINUOUS
10
125.423
20
-158.08
11
126.661
21
-158.08
0
LINE
8
BLACK
6
CONTINUOUS
10
126.661
20
-158.08
11
125.994
21
-158.842
0
LINE
8
BLACK
6
CONTINUOUS
10
125.994
20
-158.842
11
126.28
21
-158.842
0
LINE
8
BLACK
6
CONTINUOUS
10
126.28
20
-158.842
11
126.47
21
-158.937
0
LINE
8
BLACK
6
CONTINUOUS
10
126.47
20
-158.937
11
126.565
21
-159.032
0
LINE
8
BLACK
6
CONTINUOUS
10
126.565
20
-159.032
11
126.661
21
-159.223
0
LINE
8
BLACK
6
CONTINUOUS
10
126.661
20
-159.223
11
126.661
21
-159.699
0
LINE
8
BLACK
6
CONTINUOUS
10
126.661
20
-159.699
11
126.565
21
-159.889
0
LINE
8
BLACK
6
CONTINUOUS
10
126.565
20
-159.889
11
126.47
21
-159.985
0
LINE
8
BLACK
6
CONTINUOUS
10
126.47
20
-159.985
11
126.28
21
-160.08
0
LINE
8
BLACK
6
CONTINUOUS
10
126.28
20
-160.08
11
125.708
21
-160.08
0
LINE
8
BLACK
6
CONTINUOUS
10
125.708
20
-160.08
11
125.518
21
-159.985
0
LINE
8
BLACK
6
CONTINUOUS
10
125.518
20
-159.985
11
125.423
21
-159.889
0
LINE
8
BLACK
6
CONTINUOUS
10
128.565
20
-160.08
11
127.423
21
-160.08
0
LINE
8
BLACK
6
CONTINUOUS
10
127.994
20
-160.08
11
127.994
21
-158.08
0
LINE
8
BLACK
6
CONTINUOUS
10
127.994
20
-158.08
11
127.804
21
-158.365
0
LINE
8
BLACK
6
CONTINUOUS
10
127.804
20
-158.365
11
127.613
21
-158.556
0
LINE
8
BLACK
6
CONTINUOUS
10
127.613
20
-158.556
11
127.423
21
-158.651
0
LINE
8
BLACK
6
CONTINUOUS
10
130.375
20
-158.08
11
129.423
21
-158.08
0
LINE
8
BLACK
6
CONTINUOUS
10
129.423
20
-158.08
11
129.327
21
-159.032
0
LINE
8
BLACK
6
CONTINUOUS
10
129.327
20
-159.032
11
129.423
21
-158.937
0
LINE
8
BLACK
6
CONTINUOUS
10
129.423
20
-158.937
11
129.613
21
-158.842
0
LINE
8
BLACK
6
CONTINUOUS
10
129.613
20
-158.842
11
130.089
21
-158.842
0
LINE
8
BLACK
6
CONTINUOUS
10
130.089
20
-158.842
11
130.28
21
-158.937
0
LINE
8
BLACK
6
CONTINUOUS
10
130.28
20
-158.937
11
130.375
21
-159.032
0
LINE
8
BLACK
6
CONTINUOUS
10
130.375
20
-159.032
11
130.47
21
-159.223
0
LINE
8
BLACK
6
CONTINUOUS
10
130.47
20
-159.223
11
130.47
21
-159.699
0
LINE
8
BLACK
6
CONTINUOUS
10
130.47
20
-159.699
11
130.375
21
-159.889
0
LINE
8
BLACK
6
CONTINUOUS
10
130.375
20
-159.889
11
130.28
21
-159.985
0
LINE
8
BLACK
6
CONTINUOUS
10
130.28
20
-159.985
11
130.089
21
-160.08
0
LINE
8
BLACK
6
CONTINUOUS
10
130.089
20
-160.08
11
129.613
21
-160.08
0
LINE
8
BLACK
6
CONTINUOUS
10
129.613
20
-160.08
11
129.423
21
-159.985
0
LINE
8
BLACK
6
CONTINUOUS
10
129.423
20
-159.985
11
129.327
21
-159.889
0
LINE
8
BLACK
6
CONTINUOUS
10
131.232
20
-158.08
11
131.232
21
-158.461
0
LINE
8
BLACK
6
CONTINUOUS
10
131.994
20
-158.08
11
131.994
21
-158.461
0
LINE
8
BLACK
6
CONTINUOUS
10
134.623
20
-160.842
11
134.527
21
-160.746
0
LINE
8
BLACK
6
CONTINUOUS
10
134.527
20
-160.746
11
134.337
21
-160.461
0
LINE
8
BLACK
6
CONTINUOUS
10
134.337
20
-160.461
11
134.242
21
-160.27
0
LINE
8
BLACK
6
CONTINUOUS
10
134.242
20
-160.27
11
134.146
21
-159.985
0
LINE
8
BLACK
6
CONTINUOUS
10
134.146
20
-159.985
11
134.051
21
-159.508
0
LINE
8
BLACK
6
CONTINUOUS
10
134.051
20
-159.508
11
134.051
21
-159.127
0
LINE
8
BLACK
6
CONTINUOUS
10
134.051
20
-159.127
11
134.146
21
-158.651
0
LINE
8
BLACK
6
CONTINUOUS
10
134.146
20
-158.651
11
134.242
21
-158.365
0
LINE
8
BLACK
6
CONTINUOUS
10
134.242
20
-158.365
11
134.337
21
-158.175
0
LINE
8
BLACK
6
CONTINUOUS
10
134.337
20
-158.175
11
134.527
21
-157.889
0
LINE
8
BLACK
6
CONTINUOUS
10
134.527
20
-157.889
11
134.623
21
-157.794
0
LINE
8
BLACK
6
CONTINUOUS
10
135.289
20
-158.27
11
135.385
21
-158.175
0
LINE
8
BLACK
6
CONTINUOUS
10
135.385
20
-158.175
11
135.575
21
-158.08
0
LINE
8
BLACK
6
CONTINUOUS
10
135.575
20
-158.08
11
136.051
21
-158.08
0
LINE
8
BLACK
6
CONTINUOUS
10
136.051
20
-158.08
11
136.242
21
-158.175
0
LINE
8
BLACK
6
CONTINUOUS
10
136.242
20
-158.175
11
136.337
21
-158.27
0
LINE
8
BLACK
6
CONTINUOUS
10
136.337
20
-158.27
11
136.432
21
-158.461
0
LINE
8
BLACK
6
CONTINUOUS
10
136.432
20
-158.461
11
136.432
21
-158.651
0
LINE
8
BLACK
6
CONTINUOUS
10
136.432
20
-158.651
11
136.337
21
-158.937
0
LINE
8
BLACK
6
CONTINUOUS
10
136.337
20
-158.937
11
135.194
21
-160.08
0
LINE
8
BLACK
6
CONTINUOUS
10
135.194
20
-160.08
11
136.432
21
-160.08
0
LINE
8
BLACK
6
CONTINUOUS
10
138.146
20
-158.08
11
137.765
21
-158.08
0
LINE
8
BLACK
6
CONTINUOUS
10
137.765
20
-158.08
11
137.575
21
-158.175
0
LINE
8
BLACK
6
CONTINUOUS
10
137.575
20
-158.175
11
137.48
21
-158.27
0
LINE
8
BLACK
6
CONTINUOUS
10
137.48
20
-158.27
11
137.289
21
-158.556
0
LINE
8
BLACK
6
CONTINUOUS
10
137.289
20
-158.556
11
137.194
21
-158.937
0
LINE
8
BLACK
6
CONTINUOUS
10
137.194
20
-158.937
11
137.194
21
-159.699
0
LINE
8
BLACK
6
CONTINUOUS
10
137.194
20
-159.699
11
137.289
21
-159.889
0
LINE
8
BLACK
6
CONTINUOUS
10
137.289
20
-159.889
11
137.385
21
-159.985
0
LINE
8
BLACK
6
CONTINUOUS
10
137.385
20
-159.985
11
137.575
21
-160.08
0
LINE
8
BLACK
6
CONTINUOUS
10
137.575
20
-160.08
11
137.956
21
-160.08
0
LINE
8
BLACK
6
CONTINUOUS
10
137.956
20
-160.08
11
138.146
21
-159.985
0
LINE
8
BLACK
6
CONTINUOUS
10
138.146
20
-159.985
11
138.242
21
-159.889
0
LINE
8
BLACK
6
CONTINUOUS
10
138.242
20
-159.889
11
138.337
21
-159.699
0
LINE
8
BLACK
6
CONTINUOUS
10
138.337
20
-159.699
11
138.337
21
-159.223
0
LINE
8
BLACK
6
CONTINUOUS
10
138.337
20
-159.223
11
138.242
21
-159.032
0
LINE
8
BLACK
6
CONTINUOUS
10
138.242
20
-159.032
11
138.146
21
-158.937
0
LINE
8
BLACK
6
CONTINUOUS
10
138.146
20
-158.937
11
137.956
21
-158.842
0
LINE
8
BLACK
6
CONTINUOUS
10
137.956
20
-158.842
11
137.575
21
-158.842
0
LINE
8
BLACK
6
CONTINUOUS
10
137.575
20
-158.842
11
137.385
21
-158.937
0
LINE
8
BLACK
6
CONTINUOUS
10
137.385
20
-158.937
11
137.289
21
-159.032
0
LINE
8
BLACK
6
CONTINUOUS
10
137.289
20
-159.032
11
137.194
21
-159.223
0
LINE
8
BLACK
6
CONTINUOUS
10
139.004
20
-158.08
11
140.337
21
-158.08
0
LINE
8
BLACK
6
CONTINUOUS
10
140.337
20
-158.08
11
139.48
21
-160.08
0
LINE
8
BLACK
6
CONTINUOUS
10
142.299
20
-160.08
11
142.299
21
-158.08
0
LINE
8
BLACK
6
CONTINUOUS
10
143.156
20
-160.08
11
143.156
21
-159.032
0
LINE
8
BLACK
6
CONTINUOUS
10
143.156
20
-159.032
11
143.061
21
-158.842
0
LINE
8
BLACK
6
CONTINUOUS
10
143.061
20
-158.842
11
142.87
21
-158.746
0
LINE
8
BLACK
6
CONTINUOUS
10
142.87
20
-158.746
11
142.585
21
-158.746
0
LINE
8
BLACK
6
CONTINUOUS
10
142.585
20
-158.746
11
142.394
21
-158.842
0
LINE
8
BLACK
6
CONTINUOUS
10
142.394
20
-158.842
11
142.299
21
-158.937
0
LINE
8
BLACK
6
CONTINUOUS
10
144.394
20
-160.08
11
144.204
21
-159.985
0
LINE
8
BLACK
6
CONTINUOUS
10
144.204
20
-159.985
11
144.108
21
-159.889
0
LINE
8
BLACK
6
CONTINUOUS
10
144.108
20
-159.889
11
144.013
21
-159.699
0
LINE
8
BLACK
6
CONTINUOUS
10
144.013
20
-159.699
11
144.013
21
-159.127
0
LINE
8
BLACK
6
CONTINUOUS
10
144.013
20
-159.127
11
144.108
21
-158.937
0
LINE
8
BLACK
6
CONTINUOUS
10
144.108
20
-158.937
11
144.204
21
-158.842
0
LINE
8
BLACK
6
CONTINUOUS
10
144.204
20
-158.842
11
144.394
21
-158.746
0
LINE
8
BLACK
6
CONTINUOUS
10
144.394
20
-158.746
11
144.68
21
-158.746
0
LINE
8
BLACK
6
CONTINUOUS
10
144.68
20
-158.746
11
144.87
21
-158.842
0
LINE
8
BLACK
6
CONTINUOUS
10
144.87
20
-158.842
11
144.965
21
-158.937
0
LINE
8
BLACK
6
CONTINUOUS
10
144.965
20
-158.937
11
145.061
21
-159.127
0
LINE
8
BLACK
6
CONTINUOUS
10
145.061
20
-159.127
11
145.061
21
-159.699
0
LINE
8
BLACK
6
CONTINUOUS
10
145.061
20
-159.699
11
144.965
21
-159.889
0
LINE
8
BLACK
6
CONTINUOUS
10
144.965
20
-159.889
11
144.87
21
-159.985
0
LINE
8
BLACK
6
CONTINUOUS
10
144.87
20
-159.985
11
144.68
21
-160.08
0
LINE
8
BLACK
6
CONTINUOUS
10
144.68
20
-160.08
11
144.394
21
-160.08
0
LINE
8
BLACK
6
CONTINUOUS
10
146.204
20
-160.08
11
146.013
21
-159.985
0
LINE
8
BLACK
6
CONTINUOUS
10
146.013
20
-159.985
11
145.918
21
-159.794
0
LINE
8
BLACK
6
CONTINUOUS
10
145.918
20
-159.794
11
145.918
21
-158.08
0
LINE
8
BLACK
6
CONTINUOUS
10
147.727
20
-159.985
11
147.537
21
-160.08
0
LINE
8
BLACK
6
CONTINUOUS
10
147.537
20
-160.08
11
147.156
21
-160.08
0
LINE
8
BLACK
6
CONTINUOUS
10
147.156
20
-160.08
11
146.965
21
-159.985
0
LINE
8
BLACK
6
CONTINUOUS
10
146.965
20
-159.985
11
146.87
21
-159.794
0
LINE
8
BLACK
6
CONTINUOUS
10
146.87
20
-159.794
11
146.87
21
-159.032
0
LINE
8
BLACK
6
CONTINUOUS
10
146.87
20
-159.032
11
146.965
21
-158.842
0
LINE
8
BLACK
6
CONTINUOUS
10
146.965
20
-158.842
11
147.156
21
-158.746
0
LINE
8
BLACK
6
CONTINUOUS
10
147.156
20
-158.746
11
147.537
21
-158.746
0
LINE
8
BLACK
6
CONTINUOUS
10
147.537
20
-158.746
11
147.727
21
-158.842
0
LINE
8
BLACK
6
CONTINUOUS
10
147.727
20
-158.842
11
147.823
21
-159.032
0
LINE
8
BLACK
6
CONTINUOUS
10
147.823
20
-159.032
11
147.823
21
-159.223
0
LINE
8
BLACK
6
CONTINUOUS
10
147.823
20
-159.223
11
146.87
21
-159.413
0
LINE
8
BLACK
6
CONTINUOUS
10
148.585
20
-159.985
11
148.775
21
-160.08
0
LINE
8
BLACK
6
CONTINUOUS
10
148.775
20
-160.08
11
149.156
21
-160.08
0
LINE
8
BLACK
6
CONTINUOUS
10
149.156
20
-160.08
11
149.346
21
-159.985
0
LINE
8
BLACK
6
CONTINUOUS
10
149.346
20
-159.985
11
149.442
21
-159.794
0
LINE
8
BLACK
6
CONTINUOUS
10
149.442
20
-159.794
11
149.442
21
-159.699
0
LINE
8
BLACK
6
CONTINUOUS
10
149.442
20
-159.699
11
149.346
21
-159.508
0
LINE
8
BLACK
6
CONTINUOUS
10
149.346
20
-159.508
11
149.156
21
-159.413
0
LINE
8
BLACK
6
CONTINUOUS
10
149.156
20
-159.413
11
148.87
21
-159.413
0
LINE
8
BLACK
6
CONTINUOUS
10
148.87
20
-159.413
11
148.68
21
-159.318
0
LINE
8
BLACK
6
CONTINUOUS
10
148.68
20
-159.318
11
148.585
21
-159.127
0
LINE
8
BLACK
6
CONTINUOUS
10
148.585
20
-159.127
11
148.585
21
-159.032
0
LINE
8
BLACK
6
CONTINUOUS
10
148.585
20
-159.032
11
148.68
21
-158.842
0
LINE
8
BLACK
6
CONTINUOUS
10
148.68
20
-158.842
11
148.87
21
-158.746
0
LINE
8
BLACK
6
CONTINUOUS
10
148.87
20
-158.746
11
149.156
21
-158.746
0
LINE
8
BLACK
6
CONTINUOUS
10
149.156
20
-158.746
11
149.346
21
-158.842
0
LINE
8
BLACK
6
CONTINUOUS
10
150.108
20
-160.842
11
150.204
21
-160.746
0
LINE
8
BLACK
6
CONTINUOUS
10
150.204
20
-160.746
11
150.394
21
-160.461
0
LINE
8
BLACK
6
CONTINUOUS
10
150.394
20
-160.461
11
150.489
21
-160.27
0
LINE
8
BLACK
6
CONTINUOUS
10
150.489
20
-160.27
11
150.585
21
-159.985
0
LINE
8
BLACK
6
CONTINUOUS
10
150.585
20
-159.985
11
150.68
21
-159.508
0
LINE
8
BLACK
6
CONTINUOUS
10
150.68
20
-159.508
11
150.68
21
-159.127
0
LINE
8
BLACK
6
CONTINUOUS
10
150.68
20
-159.127
11
150.585
21
-158.651
0
LINE
8
BLACK
6
CONTINUOUS
10
150.585
20
-158.651
11
150.489
21
-158.365
0
LINE
8
BLACK
6
CONTINUOUS
10
150.489
20
-158.365
11
150.394
21
-158.175
0
LINE
8
BLACK
6
CONTINUOUS
10
150.394
20
-158.175
11
150.204
21
-157.889
0
LINE
8
BLACK
6
CONTINUOUS
10
150.204
20
-157.889
11
150.108
21
-157.794
0
LINE
8
BLACK
6
CONTINUOUS
10
99.475
20
-162.485
11
99.975
21
-161.985
0
LINE
8
BLACK
6
CONTINUOUS
10
99.975
20
-161.985
11
99.475
21
-161.485
0
LINE
8
BLACK
6
CONTINUOUS
10
99.475
20
-161.485
11
98.975
21
-161.985
0
LINE
8
BLACK
6
CONTINUOUS
10
98.975
20
-161.985
11
99.475
21
-162.485
0
LINE
8
BLACK
6
CONTINUOUS
10
103.499
20
-162.72
11
102.356
21
-162.72
0
LINE
8
BLACK
6
CONTINUOUS
10
102.927
20
-162.72
11
102.927
21
-160.72
0
LINE
8
BLACK
6
CONTINUOUS
10
102.927
20
-160.72
11
102.737
21
-161.005
0
LINE
8
BLACK
6
CONTINUOUS
10
102.737
20
-161.005
11
102.546
21
-161.196
0
LINE
8
BLACK
6
CONTINUOUS
10
102.546
20
-161.196
11
102.356
21
-161.291
0
LINE
8
BLACK
6
CONTINUOUS
10
104.356
20
-162.529
11
104.451
21
-162.625
0
LINE
8
BLACK
6
CONTINUOUS
10
104.451
20
-162.625
11
104.356
21
-162.72
0
LINE
8
BLACK
6
CONTINUOUS
10
104.356
20
-162.72
11
104.261
21
-162.625
0
LINE
8
BLACK
6
CONTINUOUS
10
104.261
20
-162.625
11
104.356
21
-162.529
0
LINE
8
BLACK
6
CONTINUOUS
10
104.356
20
-162.529
11
104.356
21
-162.72
0
LINE
8
BLACK
6
CONTINUOUS
10
105.689
20
-160.72
11
105.88
21
-160.72
0
LINE
8
BLACK
6
CONTINUOUS
10
105.88
20
-160.72
11
106.07
21
-160.815
0
LINE
8
BLACK
6
CONTINUOUS
10
106.07
20
-160.815
11
106.165
21
-160.91
0
LINE
8
BLACK
6
CONTINUOUS
10
106.165
20
-160.91
11
106.261
21
-161.101
0
LINE
8
BLACK
6
CONTINUOUS
10
106.261
20
-161.101
11
106.356
21
-161.482
0
LINE
8
BLACK
6
CONTINUOUS
10
106.356
20
-161.482
11
106.356
21
-161.958
0
LINE
8
BLACK
6
CONTINUOUS
10
106.356
20
-161.958
11
106.261
21
-162.339
0
LINE
8
BLACK
6
CONTINUOUS
10
106.261
20
-162.339
11
106.165
21
-162.529
0
LINE
8
BLACK
6
CONTINUOUS
10
106.165
20
-162.529
11
106.07
21
-162.625
0
LINE
8
BLACK
6
CONTINUOUS
10
106.07
20
-162.625
11
105.88
21
-162.72
0
LINE
8
BLACK
6
CONTINUOUS
10
105.88
20
-162.72
11
105.689
21
-162.72
0
LINE
8
BLACK
6
CONTINUOUS
10
105.689
20
-162.72
11
105.499
21
-162.625
0
LINE
8
BLACK
6
CONTINUOUS
10
105.499
20
-162.625
11
105.404
21
-162.529
0
LINE
8
BLACK
6
CONTINUOUS
10
105.404
20
-162.529
11
105.308
21
-162.339
0
LINE
8
BLACK
6
CONTINUOUS
10
105.308
20
-162.339
11
105.213
21
-161.958
0
LINE
8
BLACK
6
CONTINUOUS
10
105.213
20
-161.958
11
105.213
21
-161.482
0
LINE
8
BLACK
6
CONTINUOUS
10
105.213
20
-161.482
11
105.308
21
-161.101
0
LINE
8
BLACK
6
CONTINUOUS
10
105.308
20
-161.101
11
105.404
21
-160.91
0
LINE
8
BLACK
6
CONTINUOUS
10
105.404
20
-160.91
11
105.499
21
-160.815
0
LINE
8
BLACK
6
CONTINUOUS
10
105.499
20
-160.815
11
105.689
21
-160.72
0
LINE
8
BLACK
6
CONTINUOUS
10
107.594
20
-160.72
11
107.785
21
-160.72
0
LINE
8
BLACK
6
CONTINUOUS
10
107.785
20
-160.72
11
107.975
21
-160.815
0
LINE
8
BLACK
6
CONTINUOUS
10
107.975
20
-160.815
11
108.07
21
-160.91
0
LINE
8
BLACK
6
CONTINUOUS
10
108.07
20
-160.91
11
108.165
21
-161.101
0
LINE
8
BLACK
6
CONTINUOUS
10
108.165
20
-161.101
11
108.261
21
-161.482
0
LINE
8
BLACK
6
CONTINUOUS
10
108.261
20
-161.482
11
108.261
21
-161.958
0
LINE
8
BLACK
6
CONTINUOUS
10
108.261
20
-161.958
11
108.165
21
-162.339
0
LINE
8
BLACK
6
CONTINUOUS
10
108.165
20
-162.339
11
108.07
21
-162.529
0
LINE
8
BLACK
6
CONTINUOUS
10
108.07
20
-162.529
11
107.975
21
-162.625
0
LINE
8
BLACK
6
CONTINUOUS
10
107.975
20
-162.625
11
107.785
21
-162.72
0
LINE
8
BLACK
6
CONTINUOUS
10
107.785
20
-162.72
11
107.594
21
-162.72
0
LINE
8
BLACK
6
CONTINUOUS
10
107.594
20
-162.72
11
107.404
21
-162.625
0
LINE
8
BLACK
6
CONTINUOUS
10
107.404
20
-162.625
11
107.308
21
-162.529
0
LINE
8
BLACK
6
CONTINUOUS
10
107.308
20
-162.529
11
107.213
21
-162.339
0
LINE
8
BLACK
6
CONTINUOUS
10
107.213
20
-162.339
11
107.118
21
-161.958
0
LINE
8
BLACK
6
CONTINUOUS
10
107.118
20
-161.958
11
107.118
21
-161.482
0
LINE
8
BLACK
6
CONTINUOUS
10
107.118
20
-161.482
11
107.213
21
-161.101
0
LINE
8
BLACK
6
CONTINUOUS
10
107.213
20
-161.101
11
107.308
21
-160.91
0
LINE
8
BLACK
6
CONTINUOUS
10
107.308
20
-160.91
11
107.404
21
-160.815
0
LINE
8
BLACK
6
CONTINUOUS
10
107.404
20
-160.815
11
107.594
21
-160.72
0
LINE
8
BLACK
6
CONTINUOUS
10
109.499
20
-160.72
11
109.689
21
-160.72
0
LINE
8
BLACK
6
CONTINUOUS
10
109.689
20
-160.72
11
109.88
21
-160.815
0
LINE
8
BLACK
6
CONTINUOUS
10
109.88
20
-160.815
11
109.975
21
-160.91
0
LINE
8
BLACK
6
CONTINUOUS
10
109.975
20
-160.91
11
110.07
21
-161.101
0
LINE
8
BLACK
6
CONTINUOUS
10
110.07
20
-161.101
11
110.165
21
-161.482
0
LINE
8
BLACK
6
CONTINUOUS
10
110.165
20
-161.482
11
110.165
21
-161.958
0
LINE
8
BLACK
6
CONTINUOUS
10
110.165
20
-161.958
11
110.07
21
-162.339
0
LINE
8
BLACK
6
CONTINUOUS
10
110.07
20
-162.339
11
109.975
21
-162.529
0
LINE
8
BLACK
6
CONTINUOUS
10
109.975
20
-162.529
11
109.88
21
-162.625
0
LINE
8
BLACK
6
CONTINUOUS
10
109.88
20
-162.625
11
109.689
21
-162.72
0
LINE
8
BLACK
6
CONTINUOUS
10
109.689
20
-162.72
11
109.499
21
-162.72
0
LINE
8
BLACK
6
CONTINUOUS
10
109.499
20
-162.72
11
109.308
21
-162.625
0
LINE
8
BLACK
6
CONTINUOUS
10
109.308
20
-162.625
11
109.213
21
-162.529
0
LINE
8
BLACK
6
CONTINUOUS
10
109.213
20
-162.529
11
109.118
21
-162.339
0
LINE
8
BLACK
6
CONTINUOUS
10
109.118
20
-162.339
11
109.023
21
-161.958
0
LINE
8
BLACK
6
CONTINUOUS
10
109.023
20
-161.958
11
109.023
21
-161.482
0
LINE
8
BLACK
6
CONTINUOUS
10
109.023
20
-161.482
11
109.118
21
-161.101
0
LINE
8
BLACK
6
CONTINUOUS
10
109.118
20
-161.101
11
109.213
21
-160.91
0
LINE
8
BLACK
6
CONTINUOUS
10
109.213
20
-160.91
11
109.308
21
-160.815
0
LINE
8
BLACK
6
CONTINUOUS
10
109.308
20
-160.815
11
109.499
21
-160.72
0
LINE
8
BLACK
6
CONTINUOUS
10
111.023
20
-162.72
11
111.023
21
-161.386
0
LINE
8
BLACK
6
CONTINUOUS
10
111.023
20
-161.577
11
111.118
21
-161.482
0
LINE
8
BLACK
6
CONTINUOUS
10
111.118
20
-161.482
11
111.308
21
-161.386
0
LINE
8
BLACK
6
CONTINUOUS
10
111.308
20
-161.386
11
111.594
21
-161.386
0
LINE
8
BLACK
6
CONTINUOUS
10
111.594
20
-161.386
11
111.785
21
-161.482
0
LINE
8
BLACK
6
CONTINUOUS
10
111.785
20
-161.482
11
111.88
21
-161.672
0
LINE
8
BLACK
6
CONTINUOUS
10
111.88
20
-161.672
11
111.88
21
-162.72
0
LINE
8
BLACK
6
CONTINUOUS
10
111.88
20
-161.672
11
111.975
21
-161.482
0
LINE
8
BLACK
6
CONTINUOUS
10
111.975
20
-161.482
11
112.165
21
-161.386
0
LINE
8
BLACK
6
CONTINUOUS
10
112.165
20
-161.386
11
112.451
21
-161.386
0
LINE
8
BLACK
6
CONTINUOUS
10
112.451
20
-161.386
11
112.642
21
-161.482
0
LINE
8
BLACK
6
CONTINUOUS
10
112.642
20
-161.482
11
112.737
21
-161.672
0
LINE
8
BLACK
6
CONTINUOUS
10
112.737
20
-161.672
11
112.737
21
-162.72
0
LINE
8
BLACK
6
CONTINUOUS
10
113.689
20
-162.72
11
113.689
21
-161.386
0
LINE
8
BLACK
6
CONTINUOUS
10
113.689
20
-161.577
11
113.785
21
-161.482
0
LINE
8
BLACK
6
CONTINUOUS
10
113.785
20
-161.482
11
113.975
21
-161.386
0
LINE
8
BLACK
6
CONTINUOUS
10
113.975
20
-161.386
11
114.261
21
-161.386
0
LINE
8
BLACK
6
CONTINUOUS
10
114.261
20
-161.386
11
114.451
21
-161.482
0
LINE
8
BLACK
6
CONTINUOUS
10
114.451
20
-161.482
11
114.546
21
-161.672
0
LINE
8
BLACK
6
CONTINUOUS
10
114.546
20
-161.672
11
114.546
21
-162.72
0
LINE
8
BLACK
6
CONTINUOUS
10
114.546
20
-161.672
11
114.642
21
-161.482
0
LINE
8
BLACK
6
CONTINUOUS
10
114.642
20
-161.482
11
114.832
21
-161.386
0
LINE
8
BLACK
6
CONTINUOUS
10
114.832
20
-161.386
11
115.118
21
-161.386
0
LINE
8
BLACK
6
CONTINUOUS
10
115.118
20
-161.386
11
115.308
21
-161.482
0
LINE
8
BLACK
6
CONTINUOUS
10
115.308
20
-161.482
11
115.404
21
-161.672
0
LINE
8
BLACK
6
CONTINUOUS
10
115.404
20
-161.672
11
115.404
21
-162.72
0
LINE
8
BLACK
6
CONTINUOUS
10
118.985
20
-160.625
11
117.27
21
-163.196
0
LINE
8
BLACK
6
CONTINUOUS
10
121.232
20
-160.72
11
121.423
21
-160.72
0
LINE
8
BLACK
6
CONTINUOUS
10
121.423
20
-160.72
11
121.613
21
-160.815
0
LINE
8
BLACK
6
CONTINUOUS
10
121.613
20
-160.815
11
121.708
21
-160.91
0
LINE
8
BLACK
6
CONTINUOUS
10
121.708
20
-160.91
11
121.804
21
-161.101
0
LINE
8
BLACK
6
CONTINUOUS
10
121.804
20
-161.101
11
121.899
21
-161.482
0
LINE
8
BLACK
6
CONTINUOUS
10
121.899
20
-161.482
11
121.899
21
-161.958
0
LINE
8
BLACK
6
CONTINUOUS
10
121.899
20
-161.958
11
121.804
21
-162.339
0
LINE
8
BLACK
6
CONTINUOUS
10
121.804
20
-162.339
11
121.708
21
-162.529
0
LINE
8
BLACK
6
CONTINUOUS
10
121.708
20
-162.529
11
121.613
21
-162.625
0
LINE
8
BLACK
6
CONTINUOUS
10
121.613
20
-162.625
11
121.423
21
-162.72
0
LINE
8
BLACK
6
CONTINUOUS
10
121.423
20
-162.72
11
121.232
21
-162.72
0
LINE
8
BLACK
6
CONTINUOUS
10
121.232
20
-162.72
11
121.042
21
-162.625
0
LINE
8
BLACK
6
CONTINUOUS
10
121.042
20
-162.625
11
120.946
21
-162.529
0
LINE
8
BLACK
6
CONTINUOUS
10
120.946
20
-162.529
11
120.851
21
-162.339
0
LINE
8
BLACK
6
CONTINUOUS
10
120.851
20
-162.339
11
120.756
21
-161.958
0
LINE
8
BLACK
6
CONTINUOUS
10
120.756
20
-161.958
11
120.756
21
-161.482
0
LINE
8
BLACK
6
CONTINUOUS
10
120.756
20
-161.482
11
120.851
21
-161.101
0
LINE
8
BLACK
6
CONTINUOUS
10
120.851
20
-161.101
11
120.946
21
-160.91
0
LINE
8
BLACK
6
CONTINUOUS
10
120.946
20
-160.91
11
121.042
21
-160.815
0
LINE
8
BLACK
6
CONTINUOUS
10
121.042
20
-160.815
11
121.232
21
-160.72
0
LINE
8
BLACK
6
CONTINUOUS
10
122.756
20
-162.529
11
122.851
21
-162.625
0
LINE
8
BLACK
6
CONTINUOUS
10
122.851
20
-162.625
11
122.756
21
-162.72
0
LINE
8
BLACK
6
CONTINUOUS
10
122.756
20
-162.72
11
122.661
21
-162.625
0
LINE
8
BLACK
6
CONTINUOUS
10
122.661
20
-162.625
11
122.756
21
-162.529
0
LINE
8
BLACK
6
CONTINUOUS
10
122.756
20
-162.529
11
122.756
21
-162.72
0
LINE
8
BLACK
6
CONTINUOUS
10
124.089
20
-160.72
11
124.28
21
-160.72
0
LINE
8
BLACK
6
CONTINUOUS
10
124.28
20
-160.72
11
124.47
21
-160.815
0
LINE
8
BLACK
6
CONTINUOUS
10
124.47
20
-160.815
11
124.565
21
-160.91
0
LINE
8
BLACK
6
CONTINUOUS
10
124.565
20
-160.91
11
124.661
21
-161.101
0
LINE
8
BLACK
6
CONTINUOUS
10
124.661
20
-161.101
11
124.756
21
-161.482
0
LINE
8
BLACK
6
CONTINUOUS
10
124.756
20
-161.482
11
124.756
21
-161.958
0
LINE
8
BLACK
6
CONTINUOUS
10
124.756
20
-161.958
11
124.661
21
-162.339
0
LINE
8
BLACK
6
CONTINUOUS
10
124.661
20
-162.339
11
124.565
21
-162.529
0
LINE
8
BLACK
6
CONTINUOUS
10
124.565
20
-162.529
11
124.47
21
-162.625
0
LINE
8
BLACK
6
CONTINUOUS
10
124.47
20
-162.625
11
124.28
21
-162.72
0
LINE
8
BLACK
6
CONTINUOUS
10
124.28
20
-162.72
11
124.089
21
-162.72
0
LINE
8
BLACK
6
CONTINUOUS
10
124.089
20
-162.72
11
123.899
21
-162.625
0
LINE
8
BLACK
6
CONTINUOUS
10
123.899
20
-162.625
11
123.804
21
-162.529
0
LINE
8
BLACK
6
CONTINUOUS
10
123.804
20
-162.529
11
123.708
21
-162.339
0
LINE
8
BLACK
6
CONTINUOUS
10
123.708
20
-162.339
11
123.613
21
-161.958
0
LINE
8
BLACK
6
CONTINUOUS
10
123.613
20
-161.958
11
123.613
21
-161.482
0
LINE
8
BLACK
6
CONTINUOUS
10
123.613
20
-161.482
11
123.708
21
-161.101
0
LINE
8
BLACK
6
CONTINUOUS
10
123.708
20
-161.101
11
123.804
21
-160.91
0
LINE
8
BLACK
6
CONTINUOUS
10
123.804
20
-160.91
11
123.899
21
-160.815
0
LINE
8
BLACK
6
CONTINUOUS
10
123.899
20
-160.815
11
124.089
21
-160.72
0
LINE
8
BLACK
6
CONTINUOUS
10
125.423
20
-160.72
11
126.661
21
-160.72
0
LINE
8
BLACK
6
CONTINUOUS
10
126.661
20
-160.72
11
125.994
21
-161.482
0
LINE
8
BLACK
6
CONTINUOUS
10
125.994
20
-161.482
11
126.28
21
-161.482
0
LINE
8
BLACK
6
CONTINUOUS
10
126.28
20
-161.482
11
126.47
21
-161.577
0
LINE
8
BLACK
6
CONTINUOUS
10
126.47
20
-161.577
11
126.565
21
-161.672
0
LINE
8
BLACK
6
CONTINUOUS
10
126.565
20
-161.672
11
126.661
21
-161.863
0
LINE
8
BLACK
6
CONTINUOUS
10
126.661
20
-161.863
11
126.661
21
-162.339
0
LINE
8
BLACK
6
CONTINUOUS
10
126.661
20
-162.339
11
126.565
21
-162.529
0
LINE
8
BLACK
6
CONTINUOUS
10
126.565
20
-162.529
11
126.47
21
-162.625
0
LINE
8
BLACK
6
CONTINUOUS
10
126.47
20
-162.625
11
126.28
21
-162.72
0
LINE
8
BLACK
6
CONTINUOUS
10
126.28
20
-162.72
11
125.708
21
-162.72
0
LINE
8
BLACK
6
CONTINUOUS
10
125.708
20
-162.72
11
125.518
21
-162.625
0
LINE
8
BLACK
6
CONTINUOUS
10
125.518
20
-162.625
11
125.423
21
-162.529
0
LINE
8
BLACK
6
CONTINUOUS
10
127.613
20
-162.72
11
127.994
21
-162.72
0
LINE
8
BLACK
6
CONTINUOUS
10
127.994
20
-162.72
11
128.185
21
-162.625
0
LINE
8
BLACK
6
CONTINUOUS
10
128.185
20
-162.625
11
128.28
21
-162.529
0
LINE
8
BLACK
6
CONTINUOUS
10
128.28
20
-162.529
11
128.47
21
-162.244
0
LINE
8
BLACK
6
CONTINUOUS
10
128.47
20
-162.244
11
128.565
21
-161.863
0
LINE
8
BLACK
6
CONTINUOUS
10
128.565
20
-161.863
11
128.565
21
-161.101
0
LINE
8
BLACK
6
CONTINUOUS
10
128.565
20
-161.101
11
128.47
21
-160.91
0
LINE
8
BLACK
6
CONTINUOUS
10
128.47
20
-160.91
11
128.375
21
-160.815
0
LINE
8
BLACK
6
CONTINUOUS
10
128.375
20
-160.815
11
128.185
21
-160.72
0
LINE
8
BLACK
6
CONTINUOUS
10
128.185
20
-160.72
11
127.804
21
-160.72
0
LINE
8
BLACK
6
CONTINUOUS
10
127.804
20
-160.72
11
127.613
21
-160.815
0
LINE
8
BLACK
6
CONTINUOUS
10
127.613
20
-160.815
11
127.518
21
-160.91
0
LINE
8
BLACK
6
CONTINUOUS
10
127.518
20
-160.91
11
127.423
21
-161.101
0
LINE
8
BLACK
6
CONTINUOUS
10
127.423
20
-161.101
11
127.423
21
-161.577
0
LINE
8
BLACK
6
CONTINUOUS
10
127.423
20
-161.577
11
127.518
21
-161.767
0
LINE
8
BLACK
6
CONTINUOUS
10
127.518
20
-161.767
11
127.613
21
-161.863
0
LINE
8
BLACK
6
CONTINUOUS
10
127.613
20
-161.863
11
127.804
21
-161.958
0
LINE
8
BLACK
6
CONTINUOUS
10
127.804
20
-161.958
11
128.185
21
-161.958
0
LINE
8
BLACK
6
CONTINUOUS
10
128.185
20
-161.958
11
128.375
21
-161.863
0
LINE
8
BLACK
6
CONTINUOUS
10
128.375
20
-161.863
11
128.47
21
-161.767
0
LINE
8
BLACK
6
CONTINUOUS
10
128.47
20
-161.767
11
128.565
21
-161.577
0
LINE
8
BLACK
6
CONTINUOUS
10
130.28
20
-161.386
11
130.28
21
-162.72
0
LINE
8
BLACK
6
CONTINUOUS
10
129.804
20
-160.625
11
129.327
21
-162.053
0
LINE
8
BLACK
6
CONTINUOUS
10
129.327
20
-162.053
11
130.565
21
-162.053
0
LINE
8
BLACK
6
CONTINUOUS
10
131.232
20
-160.72
11
131.232
21
-161.101
0
LINE
8
BLACK
6
CONTINUOUS
10
131.994
20
-160.72
11
131.994
21
-161.101
0
LINE
8
BLACK
6
CONTINUOUS
10
134.623
20
-163.482
11
134.527
21
-163.386
0
LINE
8
BLACK
6
CONTINUOUS
10
134.527
20
-163.386
11
134.337
21
-163.101
0
LINE
8
BLACK
6
CONTINUOUS
10
134.337
20
-163.101
11
134.242
21
-162.91
0
LINE
8
BLACK
6
CONTINUOUS
10
134.242
20
-162.91
11
134.146
21
-162.625
0
LINE
8
BLACK
6
CONTINUOUS
10
134.146
20
-162.625
11
134.051
21
-162.148
0
LINE
8
BLACK
6
CONTINUOUS
10
134.051
20
-162.148
11
134.051
21
-161.767
0
LINE
8
BLACK
6
CONTINUOUS
10
134.051
20
-161.767
11
134.146
21
-161.291
0
LINE
8
BLACK
6
CONTINUOUS
10
134.146
20
-161.291
11
134.242
21
-161.005
0
LINE
8
BLACK
6
CONTINUOUS
10
134.242
20
-161.005
11
134.337
21
-160.815
0
LINE
8
BLACK
6
CONTINUOUS
10
134.337
20
-160.815
11
134.527
21
-160.529
0
LINE
8
BLACK
6
CONTINUOUS
10
134.527
20
-160.529
11
134.623
21
-160.434
0
LINE
8
BLACK
6
CONTINUOUS
10
136.242
20
-161.386
11
136.242
21
-162.72
0
LINE
8
BLACK
6
CONTINUOUS
10
135.765
20
-160.625
11
135.289
21
-162.053
0
LINE
8
BLACK
6
CONTINUOUS
10
135.289
20
-162.053
11
136.527
21
-162.053
0
LINE
8
BLACK
6
CONTINUOUS
10
137.575
20
-161.577
11
137.385
21
-161.482
0
LINE
8
BLACK
6
CONTINUOUS
10
137.385
20
-161.482
11
137.289
21
-161.386
0
LINE
8
BLACK
6
CONTINUOUS
10
137.289
20
-161.386
11
137.194
21
-161.196
0
LINE
8
BLACK
6
CONTINUOUS
10
137.194
20
-161.196
11
137.194
21
-161.101
0
LINE
8
BLACK
6
CONTINUOUS
10
137.194
20
-161.101
11
137.289
21
-160.91
0
LINE
8
BLACK
6
CONTINUOUS
10
137.289
20
-160.91
11
137.385
21
-160.815
0
LINE
8
BLACK
6
CONTINUOUS
10
137.385
20
-160.815
11
137.575
21
-160.72
0
LINE
8
BLACK
6
CONTINUOUS
10
137.575
20
-160.72
11
137.956
21
-160.72
0
LINE
8
BLACK
6
CONTINUOUS
10
137.956
20
-160.72
11
138.146
21
-160.815
0
LINE
8
BLACK
6
CONTINUOUS
10
138.146
20
-160.815
11
138.242
21
-160.91
0
LINE
8
BLACK
6
CONTINUOUS
10
138.242
20
-160.91
11
138.337
21
-161.101
0
LINE
8
BLACK
6
CONTINUOUS
10
138.337
20
-161.101
11
138.337
21
-161.196
0
LINE
8
BLACK
6
CONTINUOUS
10
138.337
20
-161.196
11
138.242
21
-161.386
0
LINE
8
BLACK
6
CONTINUOUS
10
138.242
20
-161.386
11
138.146
21
-161.482
0
LINE
8
BLACK
6
CONTINUOUS
10
138.146
20
-161.482
11
137.956
21
-161.577
0
LINE
8
BLACK
6
CONTINUOUS
10
137.956
20
-161.577
11
137.575
21
-161.577
0
LINE
8
BLACK
6
CONTINUOUS
10
137.575
20
-161.577
11
137.385
21
-161.672
0
LINE
8
BLACK
6
CONTINUOUS
10
137.385
20
-161.672
11
137.289
21
-161.767
0
LINE
8
BLACK
6
CONTINUOUS
10
137.289
20
-161.767
11
137.194
21
-161.958
0
LINE
8
BLACK
6
CONTINUOUS
10
137.194
20
-161.958
11
137.194
21
-162.339
0
LINE
8
BLACK
6
CONTINUOUS
10
137.194
20
-162.339
11
137.289
21
-162.529
0
LINE
8
BLACK
6
CONTINUOUS
10
137.289
20
-162.529
11
137.385
21
-162.625
0
LINE
8
BLACK
6
CONTINUOUS
10
137.385
20
-162.625
11
137.575
21
-162.72
0
LINE
8
BLACK
6
CONTINUOUS
10
137.575
20
-162.72
11
137.956
21
-162.72
0
LINE
8
BLACK
6
CONTINUOUS
10
137.956
20
-162.72
11
138.146
21
-162.625
0
LINE
8
BLACK
6
CONTINUOUS
10
138.146
20
-162.625
11
138.242
21
-162.529
0
LINE
8
BLACK
6
CONTINUOUS
10
138.242
20
-162.529
11
138.337
21
-162.339
0
LINE
8
BLACK
6
CONTINUOUS
10
138.337
20
-162.339
11
138.337
21
-161.958
0
LINE
8
BLACK
6
CONTINUOUS
10
138.337
20
-161.958
11
138.242
21
-161.767
0
LINE
8
BLACK
6
CONTINUOUS
10
138.242
20
-161.767
11
138.146
21
-161.672
0
LINE
8
BLACK
6
CONTINUOUS
10
138.146
20
-161.672
11
137.956
21
-161.577
0
LINE
8
BLACK
6
CONTINUOUS
10
140.394
20
-162.72
11
140.394
21
-160.72
0
LINE
8
BLACK
6
CONTINUOUS
10
141.251
20
-162.72
11
141.251
21
-161.672
0
LINE
8
BLACK
6
CONTINUOUS
10
141.251
20
-161.672
11
141.156
21
-161.482
0
LINE
8
BLACK
6
CONTINUOUS
10
141.156
20
-161.482
11
140.965
21
-161.386
0
LINE
8
BLACK
6
CONTINUOUS
10
140.965
20
-161.386
11
140.68
21
-161.386
0
LINE
8
BLACK
6
CONTINUOUS
10
140.68
20
-161.386
11
140.489
21
-161.482
0
LINE
8
BLACK
6
CONTINUOUS
10
140.489
20
-161.482
11
140.394
21
-161.577
0
LINE
8
BLACK
6
CONTINUOUS
10
142.489
20
-162.72
11
142.299
21
-162.625
0
LINE
8
BLACK
6
CONTINUOUS
10
142.299
20
-162.625
11
142.204
21
-162.529
0
LINE
8
BLACK
6
CONTINUOUS
10
142.204
20
-162.529
11
142.108
21
-162.339
0
LINE
8
BLACK
6
CONTINUOUS
10
142.108
20
-162.339
11
142.108
21
-161.767
0
LINE
8
BLACK
6
CONTINUOUS
10
142.108
20
-161.767
11
142.204
21
-161.577
0
LINE
8
BLACK
6
CONTINUOUS
10
142.204
20
-161.577
11
142.299
21
-161.482
0
LINE
8
BLACK
6
CONTINUOUS
10
142.299
20
-161.482
11
142.489
21
-161.386
0
LINE
8
BLACK
6
CONTINUOUS
10
142.489
20
-161.386
11
142.775
21
-161.386
0
LINE
8
BLACK
6
CONTINUOUS
10
142.775
20
-161.386
11
142.965
21
-161.482
0
LINE
8
BLACK
6
CONTINUOUS
10
142.965
20
-161.482
11
143.061
21
-161.577
0
LINE
8
BLACK
6
CONTINUOUS
10
143.061
20
-161.577
11
143.156
21
-161.767
0
LINE
8
BLACK
6
CONTINUOUS
10
143.156
20
-161.767
11
143.156
21
-162.339
0
LINE
8
BLACK
6
CONTINUOUS
10
143.156
20
-162.339
11
143.061
21
-162.529
0
LINE
8
BLACK
6
CONTINUOUS
10
143.061
20
-162.529
11
142.965
21
-162.625
0
LINE
8
BLACK
6
CONTINUOUS
10
142.965
20
-162.625
11
142.775
21
-162.72
0
LINE
8
BLACK
6
CONTINUOUS
10
142.775
20
-162.72
11
142.489
21
-162.72
0
LINE
8
BLACK
6
CONTINUOUS
10
144.299
20
-162.72
11
144.108
21
-162.625
0
LINE
8
BLACK
6
CONTINUOUS
10
144.108
20
-162.625
11
144.013
21
-162.434
0
LINE
8
BLACK
6
CONTINUOUS
10
144.013
20
-162.434
11
144.013
21
-160.72
0
LINE
8
BLACK
6
CONTINUOUS
10
145.823
20
-162.625
11
145.632
21
-162.72
0
LINE
8
BLACK
6
CONTINUOUS
10
145.632
20
-162.72
11
145.251
21
-162.72
0
LINE
8
BLACK
6
CONTINUOUS
10
145.251
20
-162.72
11
145.061
21
-162.625
0
LINE
8
BLACK
6
CONTINUOUS
10
145.061
20
-162.625
11
144.965
21
-162.434
0
LINE
8
BLACK
6
CONTINUOUS
10
144.965
20
-162.434
11
144.965
21
-161.672
0
LINE
8
BLACK
6
CONTINUOUS
10
144.965
20
-161.672
11
145.061
21
-161.482
0
LINE
8
BLACK
6
CONTINUOUS
10
145.061
20
-161.482
11
145.251
21
-161.386
0
LINE
8
BLACK
6
CONTINUOUS
10
145.251
20
-161.386
11
145.632
21
-161.386
0
LINE
8
BLACK
6
CONTINUOUS
10
145.632
20
-161.386
11
145.823
21
-161.482
0
LINE
8
BLACK
6
CONTINUOUS
10
145.823
20
-161.482
11
145.918
21
-161.672
0
LINE
8
BLACK
6
CONTINUOUS
10
145.918
20
-161.672
11
145.918
21
-161.863
0
LINE
8
BLACK
6
CONTINUOUS
10
145.918
20
-161.863
11
144.965
21
-162.053
0
LINE
8
BLACK
6
CONTINUOUS
10
146.68
20
-162.625
11
146.87
21
-162.72
0
LINE
8
BLACK
6
CONTINUOUS
10
146.87
20
-162.72
11
147.251
21
-162.72
0
LINE
8
BLACK
6
CONTINUOUS
10
147.251
20
-162.72
11
147.442
21
-162.625
0
LINE
8
BLACK
6
CONTINUOUS
10
147.442
20
-162.625
11
147.537
21
-162.434
0
LINE
8
BLACK
6
CONTINUOUS
10
147.537
20
-162.434
11
147.537
21
-162.339
0
LINE
8
BLACK
6
CONTINUOUS
10
147.537
20
-162.339
11
147.442
21
-162.148
0
LINE
8
BLACK
6
CONTINUOUS
10
147.442
20
-162.148
11
147.251
21
-162.053
0
LINE
8
BLACK
6
CONTINUOUS
10
147.251
20
-162.053
11
146.965
21
-162.053
0
LINE
8
BLACK
6
CONTINUOUS
10
146.965
20
-162.053
11
146.775
21
-161.958
0
LINE
8
BLACK
6
CONTINUOUS
10
146.775
20
-161.958
11
146.68
21
-161.767
0
LINE
8
BLACK
6
CONTINUOUS
10
146.68
20
-161.767
11
146.68
21
-161.672
0
LINE
8
BLACK
6
CONTINUOUS
10
146.68
20
-161.672
11
146.775
21
-161.482
0
LINE
8
BLACK
6
CONTINUOUS
10
146.775
20
-161.482
11
146.965
21
-161.386
0
LINE
8
BLACK
6
CONTINUOUS
10
146.965
20
-161.386
11
147.251
21
-161.386
0
LINE
8
BLACK
6
CONTINUOUS
10
147.251
20
-161.386
11
147.442
21
-161.482
0
LINE
8
BLACK
6
CONTINUOUS
10
148.204
20
-163.482
11
148.299
21
-163.386
0
LINE
8
BLACK
6
CONTINUOUS
10
148.299
20
-163.386
11
148.489
21
-163.101
0
LINE
8
BLACK
6
CONTINUOUS
10
148.489
20
-163.101
11
148.585
21
-162.91
0
LINE
8
BLACK
6
CONTINUOUS
10
148.585
20
-162.91
11
148.68
21
-162.625
0
LINE
8
BLACK
6
CONTINUOUS
10
148.68
20
-162.625
11
148.775
21
-162.148
0
LINE
8
BLACK
6
CONTINUOUS
10
148.775
20
-162.148
11
148.775
21
-161.767
0
LINE
8
BLACK
6
CONTINUOUS
10
148.775
20
-161.767
11
148.68
21
-161.291
0
LINE
8
BLACK
6
CONTINUOUS
10
148.68
20
-161.291
11
148.585
21
-161.005
0
LINE
8
BLACK
6
CONTINUOUS
10
148.585
20
-161.005
11
148.489
21
-160.815
0
LINE
8
BLACK
6
CONTINUOUS
10
148.489
20
-160.815
11
148.299
21
-160.529
0
LINE
8
BLACK
6
CONTINUOUS
10
148.299
20
-160.529
11
148.204
21
-160.434
0
LINE
8
BLACK
6
CONTINUOUS
10
97.975
20
-163.625
11
99.975
21
-165.625
0
LINE
8
BLACK
6
CONTINUOUS
10
99.975
20
-163.625
11
97.975
21
-165.625
0
CIRCLE
8
BLACK
10
98.975
20
-164.625
40
1
0
LINE
8
BLACK
6
CONTINUOUS
10
102.356
20
-163.55
11
102.451
21
-163.455
0
LINE
8
BLACK
6
CONTINUOUS
10
102.451
20
-163.455
11
102.642
21
-163.36
0
LINE
8
BLACK
6
CONTINUOUS
10
102.642
20
-163.36
11
103.118
21
-163.36
0
LINE
8
BLACK
6
CONTINUOUS
10
103.118
20
-163.36
11
103.308
21
-163.455
0
LINE
8
BLACK
6
CONTINUOUS
10
103.308
20
-163.455
11
103.404
21
-163.55
0
LINE
8
BLACK
6
CONTINUOUS
10
103.404
20
-163.55
11
103.499
21
-163.741
0
LINE
8
BLACK
6
CONTINUOUS
10
103.499
20
-163.741
11
103.499
21
-163.931
0
LINE
8
BLACK
6
CONTINUOUS
10
103.499
20
-163.931
11
103.404
21
-164.217
0
LINE
8
BLACK
6
CONTINUOUS
10
103.404
20
-164.217
11
102.261
21
-165.36
0
LINE
8
BLACK
6
CONTINUOUS
10
102.261
20
-165.36
11
103.499
21
-165.36
0
LINE
8
BLACK
6
CONTINUOUS
10
104.356
20
-165.169
11
104.451
21
-165.265
0
LINE
8
BLACK
6
CONTINUOUS
10
104.451
20
-165.265
11
104.356
21
-165.36
0
LINE
8
BLACK
6
CONTINUOUS
10
104.356
20
-165.36
11
104.261
21
-165.265
0
LINE
8
BLACK
6
CONTINUOUS
10
104.261
20
-165.265
11
104.356
21
-165.169
0
LINE
8
BLACK
6
CONTINUOUS
10
104.356
20
-165.169
11
104.356
21
-165.36
0
LINE
8
BLACK
6
CONTINUOUS
10
105.118
20
-163.36
11
106.451
21
-163.36
0
LINE
8
BLACK
6
CONTINUOUS
10
106.451
20
-163.36
11
105.594
21
-165.36
0
LINE
8
BLACK
6
CONTINUOUS
10
107.594
20
-163.36
11
107.785
21
-163.36
0
LINE
8
BLACK
6
CONTINUOUS
10
107.785
20
-163.36
11
107.975
21
-163.455
0
LINE
8
BLACK
6
CONTINUOUS
10
107.975
20
-163.455
11
108.07
21
-163.55
0
LINE
8
BLACK
6
CONTINUOUS
10
108.07
20
-163.55
11
108.165
21
-163.741
0
LINE
8
BLACK
6
CONTINUOUS
10
108.165
20
-163.741
11
108.261
21
-164.122
0
LINE
8
BLACK
6
CONTINUOUS
10
108.261
20
-164.122
11
108.261
21
-164.598
0
LINE
8
BLACK
6
CONTINUOUS
10
108.261
20
-164.598
11
108.165
21
-164.979
0
LINE
8
BLACK
6
CONTINUOUS
10
108.165
20
-164.979
11
108.07
21
-165.169
0
LINE
8
BLACK
6
CONTINUOUS
10
108.07
20
-165.169
11
107.975
21
-165.265
0
LINE
8
BLACK
6
CONTINUOUS
10
107.975
20
-165.265
11
107.785
21
-165.36
0
LINE
8
BLACK
6
CONTINUOUS
10
107.785
20
-165.36
11
107.594
21
-165.36
0
LINE
8
BLACK
6
CONTINUOUS
10
107.594
20
-165.36
11
107.404
21
-165.265
0
LINE
8
BLACK
6
CONTINUOUS
10
107.404
20
-165.265
11
107.308
21
-165.169
0
LINE
8
BLACK
6
CONTINUOUS
10
107.308
20
-165.169
11
107.213
21
-164.979
0
LINE
8
BLACK
6
CONTINUOUS
10
107.213
20
-164.979
11
107.118
21
-164.598
0
LINE
8
BLACK
6
CONTINUOUS
10
107.118
20
-164.598
11
107.118
21
-164.122
0
LINE
8
BLACK
6
CONTINUOUS
10
107.118
20
-164.122
11
107.213
21
-163.741
0
LINE
8
BLACK
6
CONTINUOUS
10
107.213
20
-163.741
11
107.308
21
-163.55
0
LINE
8
BLACK
6
CONTINUOUS
10
107.308
20
-163.55
11
107.404
21
-163.455
0
LINE
8
BLACK
6
CONTINUOUS
10
107.404
20
-163.455
11
107.594
21
-163.36
0
LINE
8
BLACK
6
CONTINUOUS
10
109.499
20
-163.36
11
109.689
21
-163.36
0
LINE
8
BLACK
6
CONTINUOUS
10
109.689
20
-163.36
11
109.88
21
-163.455
0
LINE
8
BLACK
6
CONTINUOUS
10
109.88
20
-163.455
11
109.975
21
-163.55
0
LINE
8
BLACK
6
CONTINUOUS
10
109.975
20
-163.55
11
110.07
21
-163.741
0
LINE
8
BLACK
6
CONTINUOUS
10
110.07
20
-163.741
11
110.165
21
-164.122
0
LINE
8
BLACK
6
CONTINUOUS
10
110.165
20
-164.122
11
110.165
21
-164.598
0
LINE
8
BLACK
6
CONTINUOUS
10
110.165
20
-164.598
11
110.07
21
-164.979
0
LINE
8
BLACK
6
CONTINUOUS
10
110.07
20
-164.979
11
109.975
21
-165.169
0
LINE
8
BLACK
6
CONTINUOUS
10
109.975
20
-165.169
11
109.88
21
-165.265
0
LINE
8
BLACK
6
CONTINUOUS
10
109.88
20
-165.265
11
109.689
21
-165.36
0
LINE
8
BLACK
6
CONTINUOUS
10
109.689
20
-165.36
11
109.499
21
-165.36
0
LINE
8
BLACK
6
CONTINUOUS
10
109.499
20
-165.36
11
109.308
21
-165.265
0
LINE
8
BLACK
6
CONTINUOUS
10
109.308
20
-165.265
11
109.213
21
-165.169
0
LINE
8
BLACK
6
CONTINUOUS
10
109.213
20
-165.169
11
109.118
21
-164.979
0
LINE
8
BLACK
6
CONTINUOUS
10
109.118
20
-164.979
11
109.023
21
-164.598
0
LINE
8
BLACK
6
CONTINUOUS
10
109.023
20
-164.598
11
109.023
21
-164.122
0
LINE
8
BLACK
6
CONTINUOUS
10
109.023
20
-164.122
11
109.118
21
-163.741
0
LINE
8
BLACK
6
CONTINUOUS
10
109.118
20
-163.741
11
109.213
21
-163.55
0
LINE
8
BLACK
6
CONTINUOUS
10
109.213
20
-163.55
11
109.308
21
-163.455
0
LINE
8
BLACK
6
CONTINUOUS
10
109.308
20
-163.455
11
109.499
21
-163.36
0
LINE
8
BLACK
6
CONTINUOUS
10
111.023
20
-165.36
11
111.023
21
-164.026
0
LINE
8
BLACK
6
CONTINUOUS
10
111.023
20
-164.217
11
111.118
21
-164.122
0
LINE
8
BLACK
6
CONTINUOUS
10
111.118
20
-164.122
11
111.308
21
-164.026
0
LINE
8
BLACK
6
CONTINUOUS
10
111.308
20
-164.026
11
111.594
21
-164.026
0
LINE
8
BLACK
6
CONTINUOUS
10
111.594
20
-164.026
11
111.785
21
-164.122
0
LINE
8
BLACK
6
CONTINUOUS
10
111.785
20
-164.122
11
111.88
21
-164.312
0
LINE
8
BLACK
6
CONTINUOUS
10
111.88
20
-164.312
11
111.88
21
-165.36
0
LINE
8
BLACK
6
CONTINUOUS
10
111.88
20
-164.312
11
111.975
21
-164.122
0
LINE
8
BLACK
6
CONTINUOUS
10
111.975
20
-164.122
11
112.165
21
-164.026
0
LINE
8
BLACK
6
CONTINUOUS
10
112.165
20
-164.026
11
112.451
21
-164.026
0
LINE
8
BLACK
6
CONTINUOUS
10
112.451
20
-164.026
11
112.642
21
-164.122
0
LINE
8
BLACK
6
CONTINUOUS
10
112.642
20
-164.122
11
112.737
21
-164.312
0
LINE
8
BLACK
6
CONTINUOUS
10
112.737
20
-164.312
11
112.737
21
-165.36
0
LINE
8
BLACK
6
CONTINUOUS
10
113.689
20
-165.36
11
113.689
21
-164.026
0
LINE
8
BLACK
6
CONTINUOUS
10
113.689
20
-164.217
11
113.785
21
-164.122
0
LINE
8
BLACK
6
CONTINUOUS
10
113.785
20
-164.122
11
113.975
21
-164.026
0
LINE
8
BLACK
6
CONTINUOUS
10
113.975
20
-164.026
11
114.261
21
-164.026
0
LINE
8
BLACK
6
CONTINUOUS
10
114.261
20
-164.026
11
114.451
21
-164.122
0
LINE
8
BLACK
6
CONTINUOUS
10
114.451
20
-164.122
11
114.546
21
-164.312
0
LINE
8
BLACK
6
CONTINUOUS
10
114.546
20
-164.312
11
114.546
21
-165.36
0
LINE
8
BLACK
6
CONTINUOUS
10
114.546
20
-164.312
11
114.642
21
-164.122
0
LINE
8
BLACK
6
CONTINUOUS
10
114.642
20
-164.122
11
114.832
21
-164.026
0
LINE
8
BLACK
6
CONTINUOUS
10
114.832
20
-164.026
11
115.118
21
-164.026
0
LINE
8
BLACK
6
CONTINUOUS
10
115.118
20
-164.026
11
115.308
21
-164.122
0
LINE
8
BLACK
6
CONTINUOUS
10
115.308
20
-164.122
11
115.404
21
-164.312
0
LINE
8
BLACK
6
CONTINUOUS
10
115.404
20
-164.312
11
115.404
21
-165.36
0
LINE
8
BLACK
6
CONTINUOUS
10
118.985
20
-163.265
11
117.27
21
-165.836
0
LINE
8
BLACK
6
CONTINUOUS
10
121.232
20
-163.36
11
121.423
21
-163.36
0
LINE
8
BLACK
6
CONTINUOUS
10
121.423
20
-163.36
11
121.613
21
-163.455
0
LINE
8
BLACK
6
CONTINUOUS
10
121.613
20
-163.455
11
121.708
21
-163.55
0
LINE
8
BLACK
6
CONTINUOUS
10
121.708
20
-163.55
11
121.804
21
-163.741
0
LINE
8
BLACK
6
CONTINUOUS
10
121.804
20
-163.741
11
121.899
21
-164.122
0
LINE
8
BLACK
6
CONTINUOUS
10
121.899
20
-164.122
11
121.899
21
-164.598
0
LINE
8
BLACK
6
CONTINUOUS
10
121.899
20
-164.598
11
121.804
21
-164.979
0
LINE
8
BLACK
6
CONTINUOUS
10
121.804
20
-164.979
11
121.708
21
-165.169
0
LINE
8
BLACK
6
CONTINUOUS
10
121.708
20
-165.169
11
121.613
21
-165.265
0
LINE
8
BLACK
6
CONTINUOUS
10
121.613
20
-165.265
11
121.423
21
-165.36
0
LINE
8
BLACK
6
CONTINUOUS
10
121.423
20
-165.36
11
121.232
21
-165.36
0
LINE
8
BLACK
6
CONTINUOUS
10
121.232
20
-165.36
11
121.042
21
-165.265
0
LINE
8
BLACK
6
CONTINUOUS
10
121.042
20
-165.265
11
120.946
21
-165.169
0
LINE
8
BLACK
6
CONTINUOUS
10
120.946
20
-165.169
11
120.851
21
-164.979
0
LINE
8
BLACK
6
CONTINUOUS
10
120.851
20
-164.979
11
120.756
21
-164.598
0
LINE
8
BLACK
6
CONTINUOUS
10
120.756
20
-164.598
11
120.756
21
-164.122
0
LINE
8
BLACK
6
CONTINUOUS
10
120.756
20
-164.122
11
120.851
21
-163.741
0
LINE
8
BLACK
6
CONTINUOUS
10
120.851
20
-163.741
11
120.946
21
-163.55
0
LINE
8
BLACK
6
CONTINUOUS
10
120.946
20
-163.55
11
121.042
21
-163.455
0
LINE
8
BLACK
6
CONTINUOUS
10
121.042
20
-163.455
11
121.232
21
-163.36
0
LINE
8
BLACK
6
CONTINUOUS
10
122.756
20
-165.169
11
122.851
21
-165.265
0
LINE
8
BLACK
6
CONTINUOUS
10
122.851
20
-165.265
11
122.756
21
-165.36
0
LINE
8
BLACK
6
CONTINUOUS
10
122.756
20
-165.36
11
122.661
21
-165.265
0
LINE
8
BLACK
6
CONTINUOUS
10
122.661
20
-165.265
11
122.756
21
-165.169
0
LINE
8
BLACK
6
CONTINUOUS
10
122.756
20
-165.169
11
122.756
21
-165.36
0
LINE
8
BLACK
6
CONTINUOUS
10
124.756
20
-165.36
11
123.613
21
-165.36
0
LINE
8
BLACK
6
CONTINUOUS
10
124.185
20
-165.36
11
124.185
21
-163.36
0
LINE
8
BLACK
6
CONTINUOUS
10
124.185
20
-163.36
11
123.994
21
-163.645
0
LINE
8
BLACK
6
CONTINUOUS
10
123.994
20
-163.645
11
123.804
21
-163.836
0
LINE
8
BLACK
6
CONTINUOUS
10
123.804
20
-163.836
11
123.613
21
-163.931
0
LINE
8
BLACK
6
CONTINUOUS
10
125.994
20
-163.36
11
126.185
21
-163.36
0
LINE
8
BLACK
6
CONTINUOUS
10
126.185
20
-163.36
11
126.375
21
-163.455
0
LINE
8
BLACK
6
CONTINUOUS
10
126.375
20
-163.455
11
126.47
21
-163.55
0
LINE
8
BLACK
6
CONTINUOUS
10
126.47
20
-163.55
11
126.565
21
-163.741
0
LINE
8
BLACK
6
CONTINUOUS
10
126.565
20
-163.741
11
126.661
21
-164.122
0
LINE
8
BLACK
6
CONTINUOUS
10
126.661
20
-164.122
11
126.661
21
-164.598
0
LINE
8
BLACK
6
CONTINUOUS
10
126.661
20
-164.598
11
126.565
21
-164.979
0
LINE
8
BLACK
6
CONTINUOUS
10
126.565
20
-164.979
11
126.47
21
-165.169
0
LINE
8
BLACK
6
CONTINUOUS
10
126.47
20
-165.169
11
126.375
21
-165.265
0
LINE
8
BLACK
6
CONTINUOUS
10
126.375
20
-165.265
11
126.185
21
-165.36
0
LINE
8
BLACK
6
CONTINUOUS
10
126.185
20
-165.36
11
125.994
21
-165.36
0
LINE
8
BLACK
6
CONTINUOUS
10
125.994
20
-165.36
11
125.804
21
-165.265
0
LINE
8
BLACK
6
CONTINUOUS
10
125.804
20
-165.265
11
125.708
21
-165.169
0
LINE
8
BLACK
6
CONTINUOUS
10
125.708
20
-165.169
11
125.613
21
-164.979
0
LINE
8
BLACK
6
CONTINUOUS
10
125.613
20
-164.979
11
125.518
21
-164.598
0
LINE
8
BLACK
6
CONTINUOUS
10
125.518
20
-164.598
11
125.518
21
-164.122
0
LINE
8
BLACK
6
CONTINUOUS
10
125.518
20
-164.122
11
125.613
21
-163.741
0
LINE
8
BLACK
6
CONTINUOUS
10
125.613
20
-163.741
11
125.708
21
-163.55
0
LINE
8
BLACK
6
CONTINUOUS
10
125.708
20
-163.55
11
125.804
21
-163.455
0
LINE
8
BLACK
6
CONTINUOUS
10
125.804
20
-163.455
11
125.994
21
-163.36
0
LINE
8
BLACK
6
CONTINUOUS
10
128.375
20
-163.36
11
127.994
21
-163.36
0
LINE
8
BLACK
6
CONTINUOUS
10
127.994
20
-163.36
11
127.804
21
-163.455
0
LINE
8
BLACK
6
CONTINUOUS
10
127.804
20
-163.455
11
127.708
21
-163.55
0
LINE
8
BLACK
6
CONTINUOUS
10
127.708
20
-163.55
11
127.518
21
-163.836
0
LINE
8
BLACK
6
CONTINUOUS
10
127.518
20
-163.836
11
127.423
21
-164.217
0
LINE
8
BLACK
6
CONTINUOUS
10
127.423
20
-164.217
11
127.423
21
-164.979
0
LINE
8
BLACK
6
CONTINUOUS
10
127.423
20
-164.979
11
127.518
21
-165.169
0
LINE
8
BLACK
6
CONTINUOUS
10
127.518
20
-165.169
11
127.613
21
-165.265
0
LINE
8
BLACK
6
CONTINUOUS
10
127.613
20
-165.265
11
127.804
21
-165.36
0
LINE
8
BLACK
6
CONTINUOUS
10
127.804
20
-165.36
11
128.185
21
-165.36
0
LINE
8
BLACK
6
CONTINUOUS
10
128.185
20
-165.36
11
128.375
21
-165.265
0
LINE
8
BLACK
6
CONTINUOUS
10
128.375
20
-165.265
11
128.47
21
-165.169
0
LINE
8
BLACK
6
CONTINUOUS
10
128.47
20
-165.169
11
128.565
21
-164.979
0
LINE
8
BLACK
6
CONTINUOUS
10
128.565
20
-164.979
11
128.565
21
-164.503
0
LINE
8
BLACK
6
CONTINUOUS
10
128.565
20
-164.503
11
128.47
21
-164.312
0
LINE
8
BLACK
6
CONTINUOUS
10
128.47
20
-164.312
11
128.375
21
-164.217
0
LINE
8
BLACK
6
CONTINUOUS
10
128.375
20
-164.217
11
128.185
21
-164.122
0
LINE
8
BLACK
6
CONTINUOUS
10
128.185
20
-164.122
11
127.804
21
-164.122
0
LINE
8
BLACK
6
CONTINUOUS
10
127.804
20
-164.122
11
127.613
21
-164.217
0
LINE
8
BLACK
6
CONTINUOUS
10
127.613
20
-164.217
11
127.518
21
-164.312
0
LINE
8
BLACK
6
CONTINUOUS
10
127.518
20
-164.312
11
127.423
21
-164.503
0
LINE
8
BLACK
6
CONTINUOUS
10
129.232
20
-163.36
11
130.47
21
-163.36
0
LINE
8
BLACK
6
CONTINUOUS
10
130.47
20
-163.36
11
129.804
21
-164.122
0
LINE
8
BLACK
6
CONTINUOUS
10
129.804
20
-164.122
11
130.089
21
-164.122
0
LINE
8
BLACK
6
CONTINUOUS
10
130.089
20
-164.122
11
130.28
21
-164.217
0
LINE
8
BLACK
6
CONTINUOUS
10
130.28
20
-164.217
11
130.375
21
-164.312
0
LINE
8
BLACK
6
CONTINUOUS
10
130.375
20
-164.312
11
130.47
21
-164.503
0
LINE
8
BLACK
6
CONTINUOUS
10
130.47
20
-164.503
11
130.47
21
-164.979
0
LINE
8
BLACK
6
CONTINUOUS
10
130.47
20
-164.979
11
130.375
21
-165.169
0
LINE
8
BLACK
6
CONTINUOUS
10
130.375
20
-165.169
11
130.28
21
-165.265
0
LINE
8
BLACK
6
CONTINUOUS
10
130.28
20
-165.265
11
130.089
21
-165.36
0
LINE
8
BLACK
6
CONTINUOUS
10
130.089
20
-165.36
11
129.518
21
-165.36
0
LINE
8
BLACK
6
CONTINUOUS
10
129.518
20
-165.36
11
129.327
21
-165.265
0
LINE
8
BLACK
6
CONTINUOUS
10
129.327
20
-165.265
11
129.232
21
-165.169
0
LINE
8
BLACK
6
CONTINUOUS
10
131.232
20
-163.36
11
131.232
21
-163.741
0
LINE
8
BLACK
6
CONTINUOUS
10
131.994
20
-163.36
11
131.994
21
-163.741
0
LINE
8
BLACK
6
CONTINUOUS
10
134.623
20
-166.122
11
134.527
21
-166.026
0
LINE
8
BLACK
6
CONTINUOUS
10
134.527
20
-166.026
11
134.337
21
-165.741
0
LINE
8
BLACK
6
CONTINUOUS
10
134.337
20
-165.741
11
134.242
21
-165.55
0
LINE
8
BLACK
6
CONTINUOUS
10
134.242
20
-165.55
11
134.146
21
-165.265
0
LINE
8
BLACK
6
CONTINUOUS
10
134.146
20
-165.265
11
134.051
21
-164.788
0
LINE
8
BLACK
6
CONTINUOUS
10
134.051
20
-164.788
11
134.051
21
-164.407
0
LINE
8
BLACK
6
CONTINUOUS
10
134.051
20
-164.407
11
134.146
21
-163.931
0
LINE
8
BLACK
6
CONTINUOUS
10
134.146
20
-163.931
11
134.242
21
-163.645
0
LINE
8
BLACK
6
CONTINUOUS
10
134.242
20
-163.645
11
134.337
21
-163.455
0
LINE
8
BLACK
6
CONTINUOUS
10
134.337
20
-163.455
11
134.527
21
-163.169
0
LINE
8
BLACK
6
CONTINUOUS
10
134.527
20
-163.169
11
134.623
21
-163.074
0
LINE
8
BLACK
6
CONTINUOUS
10
136.242
20
-164.026
11
136.242
21
-165.36
0
LINE
8
BLACK
6
CONTINUOUS
10
135.765
20
-163.265
11
135.289
21
-164.693
0
LINE
8
BLACK
6
CONTINUOUS
10
135.289
20
-164.693
11
136.527
21
-164.693
0
LINE
8
BLACK
6
CONTINUOUS
10
138.489
20
-165.36
11
138.489
21
-163.36
0
LINE
8
BLACK
6
CONTINUOUS
10
139.346
20
-165.36
11
139.346
21
-164.312
0
LINE
8
BLACK
6
CONTINUOUS
10
139.346
20
-164.312
11
139.251
21
-164.122
0
LINE
8
BLACK
6
CONTINUOUS
10
139.251
20
-164.122
11
139.061
21
-164.026
0
LINE
8
BLACK
6
CONTINUOUS
10
139.061
20
-164.026
11
138.775
21
-164.026
0
LINE
8
BLACK
6
CONTINUOUS
10
138.775
20
-164.026
11
138.585
21
-164.122
0
LINE
8
BLACK
6
CONTINUOUS
10
138.585
20
-164.122
11
138.489
21
-164.217
0
LINE
8
BLACK
6
CONTINUOUS
10
140.585
20
-165.36
11
140.394
21
-165.265
0
LINE
8
BLACK
6
CONTINUOUS
10
140.394
20
-165.265
11
140.299
21
-165.169
0
LINE
8
BLACK
6
CONTINUOUS
10
140.299
20
-165.169
11
140.204
21
-164.979
0
LINE
8
BLACK
6
CONTINUOUS
10
140.204
20
-164.979
11
140.204
21
-164.407
0
LINE
8
BLACK
6
CONTINUOUS
10
140.204
20
-164.407
11
140.299
21
-164.217
0
LINE
8
BLACK
6
CONTINUOUS
10
140.299
20
-164.217
11
140.394
21
-164.122
0
LINE
8
BLACK
6
CONTINUOUS
10
140.394
20
-164.122
11
140.585
21
-164.026
0
LINE
8
BLACK
6
CONTINUOUS
10
140.585
20
-164.026
11
140.87
21
-164.026
0
LINE
8
BLACK
6
CONTINUOUS
10
140.87
20
-164.026
11
141.061
21
-164.122
0
LINE
8
BLACK
6
CONTINUOUS
10
141.061
20
-164.122
11
141.156
21
-164.217
0
LINE
8
BLACK
6
CONTINUOUS
10
141.156
20
-164.217
11
141.251
21
-164.407
0
LINE
8
BLACK
6
CONTINUOUS
10
141.251
20
-164.407
11
141.251
21
-164.979
0
LINE
8
BLACK
6
CONTINUOUS
10
141.251
20
-164.979
11
141.156
21
-165.169
0
LINE
8
BLACK
6
CONTINUOUS
10
141.156
20
-165.169
11
141.061
21
-165.265
0
LINE
8
BLACK
6
CONTINUOUS
10
141.061
20
-165.265
11
140.87
21
-165.36
0
LINE
8
BLACK
6
CONTINUOUS
10
140.87
20
-165.36
11
140.585
21
-165.36
0
LINE
8
BLACK
6
CONTINUOUS
10
142.394
20
-165.36
11
142.204
21
-165.265
0
LINE
8
BLACK
6
CONTINUOUS
10
142.204
20
-165.265
11
142.108
21
-165.074
0
LINE
8
BLACK
6
CONTINUOUS
10
142.108
20
-165.074
11
142.108
21
-163.36
0
LINE
8
BLACK
6
CONTINUOUS
10
143.918
20
-165.265
11
143.727
21
-165.36
0
LINE
8
BLACK
6
CONTINUOUS
10
143.727
20
-165.36
11
143.346
21
-165.36
0
LINE
8
BLACK
6
CONTINUOUS
10
143.346
20
-165.36
11
143.156
21
-165.265
0
LINE
8
BLACK
6
CONTINUOUS
10
143.156
20
-165.265
11
143.061
21
-165.074
0
LINE
8
BLACK
6
CONTINUOUS
10
143.061
20
-165.074
11
143.061
21
-164.312
0
LINE
8
BLACK
6
CONTINUOUS
10
143.061
20
-164.312
11
143.156
21
-164.122
0
LINE
8
BLACK
6
CONTINUOUS
10
143.156
20
-164.122
11
143.346
21
-164.026
0
LINE
8
BLACK
6
CONTINUOUS
10
143.346
20
-164.026
11
143.727
21
-164.026
0
LINE
8
BLACK
6
CONTINUOUS
10
143.727
20
-164.026
11
143.918
21
-164.122
0
LINE
8
BLACK
6
CONTINUOUS
10
143.918
20
-164.122
11
144.013
21
-164.312
0
LINE
8
BLACK
6
CONTINUOUS
10
144.013
20
-164.312
11
144.013
21
-164.503
0
LINE
8
BLACK
6
CONTINUOUS
10
144.013
20
-164.503
11
143.061
21
-164.693
0
LINE
8
BLACK
6
CONTINUOUS
10
144.775
20
-165.265
11
144.965
21
-165.36
0
LINE
8
BLACK
6
CONTINUOUS
10
144.965
20
-165.36
11
145.346
21
-165.36
0
LINE
8
BLACK
6
CONTINUOUS
10
145.346
20
-165.36
11
145.537
21
-165.265
0
LINE
8
BLACK
6
CONTINUOUS
10
145.537
20
-165.265
11
145.632
21
-165.074
0
LINE
8
BLACK
6
CONTINUOUS
10
145.632
20
-165.074
11
145.632
21
-164.979
0
LINE
8
BLACK
6
CONTINUOUS
10
145.632
20
-164.979
11
145.537
21
-164.788
0
LINE
8
BLACK
6
CONTINUOUS
10
145.537
20
-164.788
11
145.346
21
-164.693
0
LINE
8
BLACK
6
CONTINUOUS
10
145.346
20
-164.693
11
145.061
21
-164.693
0
LINE
8
BLACK
6
CONTINUOUS
10
145.061
20
-164.693
11
144.87
21
-164.598
0
LINE
8
BLACK
6
CONTINUOUS
10
144.87
20
-164.598
11
144.775
21
-164.407
0
LINE
8
BLACK
6
CONTINUOUS
10
144.775
20
-164.407
11
144.775
21
-164.312
0
LINE
8
BLACK
6
CONTINUOUS
10
144.775
20
-164.312
11
144.87
21
-164.122
0
LINE
8
BLACK
6
CONTINUOUS
10
144.87
20
-164.122
11
145.061
21
-164.026
0
LINE
8
BLACK
6
CONTINUOUS
10
145.061
20
-164.026
11
145.346
21
-164.026
0
LINE
8
BLACK
6
CONTINUOUS
10
145.346
20
-164.026
11
145.537
21
-164.122
0
LINE
8
BLACK
6
CONTINUOUS
10
146.299
20
-166.122
11
146.394
21
-166.026
0
LINE
8
BLACK
6
CONTINUOUS
10
146.394
20
-166.026
11
146.585
21
-165.741
0
LINE
8
BLACK
6
CONTINUOUS
10
146.585
20
-165.741
11
146.68
21
-165.55
0
LINE
8
BLACK
6
CONTINUOUS
10
146.68
20
-165.55
11
146.775
21
-165.265
0
LINE
8
BLACK
6
CONTINUOUS
10
146.775
20
-165.265
11
146.87
21
-164.788
0
LINE
8
BLACK
6
CONTINUOUS
10
146.87
20
-164.788
11
146.87
21
-164.407
0
LINE
8
BLACK
6
CONTINUOUS
10
146.87
20
-164.407
11
146.775
21
-163.931
0
LINE
8
BLACK
6
CONTINUOUS
10
146.775
20
-163.931
11
146.68
21
-163.645
0
LINE
8
BLACK
6
CONTINUOUS
10
146.68
20
-163.645
11
146.585
21
-163.455
0
LINE
8
BLACK
6
CONTINUOUS
10
146.585
20
-163.455
11
146.394
21
-163.169
0
LINE
8
BLACK
6
CONTINUOUS
10
146.394
20
-163.169
11
146.299
21
-163.074
  0
ENDSEC
  0
EOF
