  0
SECTION
  2
HEADER
  9
$ANGBASE
  50
0.0
  9
$ANGDIR
  70
1
  9
$MEASUREMENT
  70
1
  0
ENDSEC
  0
SECTION
  2
TABLES
  0
TABLE
  2
LTYPE
  70
4
  0
LTYPE
  5
40F
  2
CONTINUOUS
  70
0
  3
Solid line
  72
65
  73
0
  40
0.0
  0
LTYPE
  5
410
  2
DASHDOT
 70
0
  3
Dash Dot ____ _ ____ _
 72
65
 73
4
 40
2.0
 49
1.25
 49
-0.25
 49
0.25
 49
-0.25
  0
LTYPE
  5
411
  2
DASHED
 70
0
  3
Dashed __ __ __ __ __
 72
65
 73
2
 40
0.75
 49
0.5
 49
-0.25
  0
LTYPE
  5
43B
  2
DOTTED
 70
0
  3
Dotted .  .  .  .
 72
65
 73
2
 40
0.2
 49
0.0
 49
-0.2
  0
ENDTAB
  0
TABLE
  2
STYLE
  70
4
  0
STYLE
  2
KICAD
  70
0
  40
0
  41
1
  42
1
  50
0
  71
0
  3
isocp.shx
  0
STYLE
  2
KICADB
  70
0
  40
0
  41
1
  42
1
  50
0
  71
0
  3
isocp.shx
  0
STYLE
  2
KICADI
  70
0
  40
0
  41
1
  42
1
  50
15
  71
0
  3
isocp.shx
  0
STYLE
  2
KICADBI
  70
0
  40
0
  41
1
  42
1
  50
15
  71
0
  3
isocp.shx
  0
ENDTAB
  0
TABLE
  2
LAYER
  70
1
  0
LAYER
  2
BLACK
  70
0
  62
7
  6
CONTINUOUS
  0
ENDTAB
  0
ENDSEC
  0
SECTION
  2
ENTITIES
0
LINE
8
BLACK
6
CONTINUOUS
10
216
20
-40
11
216
21
-135
0
LINE
8
BLACK
6
CONTINUOUS
10
100
20
-40
11
216
21
-40
0
LINE
8
BLACK
6
CONTINUOUS
10
134
20
-135
11
100
21
-135
0
LINE
8
BLACK
6
CONTINUOUS
10
192
20
-135
11
192
21
-144.7
0
LINE
8
BLACK
6
CONTINUOUS
10
134.2
20
-145
11
191.7
21
-145
0
LINE
8
BLACK
6
CONTINUOUS
10
216
20
-135
11
192
21
-135
0
LINE
8
BLACK
6
CONTINUOUS
10
134
20
-135
11
134
21
-144.8
0
LINE
8
BLACK
6
CONTINUOUS
10
191.7
20
-145
11
192
21
-144.7
0
LINE
8
BLACK
6
CONTINUOUS
10
100
20
-40
11
100
21
-135
0
LINE
8
BLACK
6
CONTINUOUS
10
134
20
-144.8
11
134.2
21
-145
0
LINE
8
BLACK
6
CONTINUOUS
10
102.451
20
-147.96
11
102.451
21
-145.96
0
LINE
8
BLACK
6
CONTINUOUS
10
102.451
20
-145.96
11
102.927
21
-145.96
0
LINE
8
BLACK
6
CONTINUOUS
10
102.927
20
-145.96
11
103.213
21
-146.055
0
LINE
8
BLACK
6
CONTINUOUS
10
103.213
20
-146.055
11
103.404
21
-146.245
0
LINE
8
BLACK
6
CONTINUOUS
10
103.404
20
-146.245
11
103.499
21
-146.436
0
LINE
8
BLACK
6
CONTINUOUS
10
103.499
20
-146.436
11
103.594
21
-146.817
0
LINE
8
BLACK
6
CONTINUOUS
10
103.594
20
-146.817
11
103.594
21
-147.103
0
LINE
8
BLACK
6
CONTINUOUS
10
103.594
20
-147.103
11
103.499
21
-147.484
0
LINE
8
BLACK
6
CONTINUOUS
10
103.499
20
-147.484
11
103.404
21
-147.674
0
LINE
8
BLACK
6
CONTINUOUS
10
103.404
20
-147.674
11
103.213
21
-147.865
0
LINE
8
BLACK
6
CONTINUOUS
10
103.213
20
-147.865
11
102.927
21
-147.96
0
LINE
8
BLACK
6
CONTINUOUS
10
102.927
20
-147.96
11
102.451
21
-147.96
0
LINE
8
BLACK
6
CONTINUOUS
10
104.451
20
-147.96
11
104.451
21
-146.626
0
LINE
8
BLACK
6
CONTINUOUS
10
104.451
20
-147.007
11
104.546
21
-146.817
0
LINE
8
BLACK
6
CONTINUOUS
10
104.546
20
-146.817
11
104.642
21
-146.722
0
LINE
8
BLACK
6
CONTINUOUS
10
104.642
20
-146.722
11
104.832
21
-146.626
0
LINE
8
BLACK
6
CONTINUOUS
10
104.832
20
-146.626
11
105.023
21
-146.626
0
LINE
8
BLACK
6
CONTINUOUS
10
105.689
20
-147.96
11
105.689
21
-146.626
0
LINE
8
BLACK
6
CONTINUOUS
10
105.689
20
-145.96
11
105.594
21
-146.055
0
LINE
8
BLACK
6
CONTINUOUS
10
105.594
20
-146.055
11
105.689
21
-146.15
0
LINE
8
BLACK
6
CONTINUOUS
10
105.689
20
-146.15
11
105.785
21
-146.055
0
LINE
8
BLACK
6
CONTINUOUS
10
105.785
20
-146.055
11
105.689
21
-145.96
0
LINE
8
BLACK
6
CONTINUOUS
10
105.689
20
-145.96
11
105.689
21
-146.15
0
LINE
8
BLACK
6
CONTINUOUS
10
106.927
20
-147.96
11
106.737
21
-147.865
0
LINE
8
BLACK
6
CONTINUOUS
10
106.737
20
-147.865
11
106.642
21
-147.674
0
LINE
8
BLACK
6
CONTINUOUS
10
106.642
20
-147.674
11
106.642
21
-145.96
0
LINE
8
BLACK
6
CONTINUOUS
10
107.975
20
-147.96
11
107.785
21
-147.865
0
LINE
8
BLACK
6
CONTINUOUS
10
107.785
20
-147.865
11
107.689
21
-147.674
0
LINE
8
BLACK
6
CONTINUOUS
10
107.689
20
-147.674
11
107.689
21
-145.96
0
LINE
8
BLACK
6
CONTINUOUS
10
109.937
20
-147.96
11
109.937
21
-145.96
0
LINE
8
BLACK
6
CONTINUOUS
10
109.937
20
-145.96
11
110.604
21
-147.388
0
LINE
8
BLACK
6
CONTINUOUS
10
110.604
20
-147.388
11
111.27
21
-145.96
0
LINE
8
BLACK
6
CONTINUOUS
10
111.27
20
-145.96
11
111.27
21
-147.96
0
LINE
8
BLACK
6
CONTINUOUS
10
113.08
20
-147.96
11
113.08
21
-146.912
0
LINE
8
BLACK
6
CONTINUOUS
10
113.08
20
-146.912
11
112.985
21
-146.722
0
LINE
8
BLACK
6
CONTINUOUS
10
112.985
20
-146.722
11
112.794
21
-146.626
0
LINE
8
BLACK
6
CONTINUOUS
10
112.794
20
-146.626
11
112.413
21
-146.626
0
LINE
8
BLACK
6
CONTINUOUS
10
112.413
20
-146.626
11
112.223
21
-146.722
0
LINE
8
BLACK
6
CONTINUOUS
10
113.08
20
-147.865
11
112.889
21
-147.96
0
LINE
8
BLACK
6
CONTINUOUS
10
112.889
20
-147.96
11
112.413
21
-147.96
0
LINE
8
BLACK
6
CONTINUOUS
10
112.413
20
-147.96
11
112.223
21
-147.865
0
LINE
8
BLACK
6
CONTINUOUS
10
112.223
20
-147.865
11
112.127
21
-147.674
0
LINE
8
BLACK
6
CONTINUOUS
10
112.127
20
-147.674
11
112.127
21
-147.484
0
LINE
8
BLACK
6
CONTINUOUS
10
112.127
20
-147.484
11
112.223
21
-147.293
0
LINE
8
BLACK
6
CONTINUOUS
10
112.223
20
-147.293
11
112.413
21
-147.198
0
LINE
8
BLACK
6
CONTINUOUS
10
112.413
20
-147.198
11
112.889
21
-147.198
0
LINE
8
BLACK
6
CONTINUOUS
10
112.889
20
-147.198
11
113.08
21
-147.103
0
LINE
8
BLACK
6
CONTINUOUS
10
114.032
20
-146.626
11
114.032
21
-148.626
0
LINE
8
BLACK
6
CONTINUOUS
10
114.032
20
-146.722
11
114.223
21
-146.626
0
LINE
8
BLACK
6
CONTINUOUS
10
114.223
20
-146.626
11
114.604
21
-146.626
0
LINE
8
BLACK
6
CONTINUOUS
10
114.604
20
-146.626
11
114.794
21
-146.722
0
LINE
8
BLACK
6
CONTINUOUS
10
114.794
20
-146.722
11
114.889
21
-146.817
0
LINE
8
BLACK
6
CONTINUOUS
10
114.889
20
-146.817
11
114.985
21
-147.007
0
LINE
8
BLACK
6
CONTINUOUS
10
114.985
20
-147.007
11
114.985
21
-147.579
0
LINE
8
BLACK
6
CONTINUOUS
10
114.985
20
-147.579
11
114.889
21
-147.769
0
LINE
8
BLACK
6
CONTINUOUS
10
114.889
20
-147.769
11
114.794
21
-147.865
0
LINE
8
BLACK
6
CONTINUOUS
10
114.794
20
-147.865
11
114.604
21
-147.96
0
LINE
8
BLACK
6
CONTINUOUS
10
114.604
20
-147.96
11
114.223
21
-147.96
0
LINE
8
BLACK
6
CONTINUOUS
10
114.223
20
-147.96
11
114.032
21
-147.865
0
LINE
8
BLACK
6
CONTINUOUS
10
115.842
20
-147.769
11
115.937
21
-147.865
0
LINE
8
BLACK
6
CONTINUOUS
10
115.937
20
-147.865
11
115.842
21
-147.96
0
LINE
8
BLACK
6
CONTINUOUS
10
115.842
20
-147.96
11
115.746
21
-147.865
0
LINE
8
BLACK
6
CONTINUOUS
10
115.746
20
-147.865
11
115.842
21
-147.769
0
LINE
8
BLACK
6
CONTINUOUS
10
115.842
20
-147.769
11
115.842
21
-147.96
0
LINE
8
BLACK
6
CONTINUOUS
10
115.842
20
-146.722
11
115.937
21
-146.817
0
LINE
8
BLACK
6
CONTINUOUS
10
115.937
20
-146.817
11
115.842
21
-146.912
0
LINE
8
BLACK
6
CONTINUOUS
10
115.842
20
-146.912
11
115.746
21
-146.817
0
LINE
8
BLACK
6
CONTINUOUS
10
115.746
20
-146.817
11
115.842
21
-146.722
0
LINE
8
BLACK
6
CONTINUOUS
10
115.842
20
-146.722
11
115.842
21
-146.912
  0
ENDSEC
  0
EOF
