  0
SECTION
  2
HEADER
  9
$ANGBASE
  50
0.0
  9
$ANGDIR
  70
1
  9
$MEASUREMENT
  70
1
  0
ENDSEC
  0
SECTION
  2
TABLES
  0
TABLE
  2
LTYPE
  70
4
  0
LTYPE
  5
40F
  2
CONTINUOUS
  70
0
  3
Solid line
  72
65
  73
0
  40
0.0
  0
LTYPE
  5
410
  2
DASHDOT
 70
0
  3
Dash Dot ____ _ ____ _
 72
65
 73
4
 40
2.0
 49
1.25
 49
-0.25
 49
0.25
 49
-0.25
  0
LTYPE
  5
411
  2
DASHED
 70
0
  3
Dashed __ __ __ __ __
 72
65
 73
2
 40
0.75
 49
0.5
 49
-0.25
  0
LTYPE
  5
43B
  2
DOTTED
 70
0
  3
Dotted .  .  .  .
 72
65
 73
2
 40
0.2
 49
0.0
 49
-0.2
  0
ENDTAB
  0
TABLE
  2
STYLE
  70
4
  0
STYLE
  2
KICAD
  70
0
  40
0
  41
1
  42
1
  50
0
  71
0
  3
isocp.shx
  0
STYLE
  2
KICADB
  70
0
  40
0
  41
1
  42
1
  50
0
  71
0
  3
isocp.shx
  0
STYLE
  2
KICADI
  70
0
  40
0
  41
1
  42
1
  50
15
  71
0
  3
isocp.shx
  0
STYLE
  2
KICADBI
  70
0
  40
0
  41
1
  42
1
  50
15
  71
0
  3
isocp.shx
  0
ENDTAB
  0
TABLE
  2
LAYER
  70
1
  0
LAYER
  2
BLACK
  70
0
  62
7
  6
CONTINUOUS
  0
ENDTAB
  0
ENDSEC
  0
SECTION
  2
ENTITIES
0
LINE
8
BLACK
6
CONTINUOUS
10
126.5
20
-77.69
11
126.5
21
-148.81
0
LINE
8
BLACK
6
CONTINUOUS
10
149.233
20
-77.69
11
149.233
21
-148.81
0
LINE
8
BLACK
6
CONTINUOUS
10
126.5
20
-148.81
11
149.233
21
-148.81
0
LINE
8
BLACK
6
CONTINUOUS
10
126.5
20
-77.69
11
149.233
21
-77.69
0
LINE
8
BLACK
6
CONTINUOUS
10
129.05
20
-117.08
11
129.45
21
-117.48
0
LINE
8
BLACK
6
CONTINUOUS
10
129.45
20
-117.08
11
129.05
21
-117.48
0
LINE
8
BLACK
6
CONTINUOUS
10
129.7
20
-121.42
11
130.1
21
-121.82
0
LINE
8
BLACK
6
CONTINUOUS
10
130.1
20
-121.42
11
129.7
21
-121.82
0
LINE
8
BLACK
6
CONTINUOUS
10
130.16
20
-105.91
11
130.56
21
-106.31
0
LINE
8
BLACK
6
CONTINUOUS
10
130.56
20
-105.91
11
130.16
21
-106.31
0
LINE
8
BLACK
6
CONTINUOUS
10
133.281
20
-123.804
11
133.681
21
-124.204
0
LINE
8
BLACK
6
CONTINUOUS
10
133.681
20
-123.804
11
133.281
21
-124.204
0
LINE
8
BLACK
6
CONTINUOUS
10
134.17
20
-131.83
11
134.57
21
-132.23
0
LINE
8
BLACK
6
CONTINUOUS
10
134.57
20
-131.83
11
134.17
21
-132.23
0
LINE
8
BLACK
6
CONTINUOUS
10
134.43
20
-139.11
11
134.83
21
-139.51
0
LINE
8
BLACK
6
CONTINUOUS
10
134.83
20
-139.11
11
134.43
21
-139.51
0
LINE
8
BLACK
6
CONTINUOUS
10
136.01
20
-113.09
11
136.41
21
-113.49
0
LINE
8
BLACK
6
CONTINUOUS
10
136.41
20
-113.09
11
136.01
21
-113.49
0
LINE
8
BLACK
6
CONTINUOUS
10
137.43
20
-103.62
11
137.83
21
-104.02
0
LINE
8
BLACK
6
CONTINUOUS
10
137.83
20
-103.62
11
137.43
21
-104.02
0
LINE
8
BLACK
6
CONTINUOUS
10
139.375
20
-130.469
11
139.775
21
-130.869
0
LINE
8
BLACK
6
CONTINUOUS
10
139.775
20
-130.469
11
139.375
21
-130.869
0
LINE
8
BLACK
6
CONTINUOUS
10
139.42
20
-113.17
11
139.82
21
-113.57
0
LINE
8
BLACK
6
CONTINUOUS
10
139.82
20
-113.17
11
139.42
21
-113.57
0
LINE
8
BLACK
6
CONTINUOUS
10
140.235
20
-132.391
11
140.635
21
-132.791
0
LINE
8
BLACK
6
CONTINUOUS
10
140.635
20
-132.391
11
140.235
21
-132.791
0
LINE
8
BLACK
6
CONTINUOUS
10
142.22
20
-126.57
11
142.62
21
-126.97
0
LINE
8
BLACK
6
CONTINUOUS
10
142.62
20
-126.57
11
142.22
21
-126.97
0
CIRCLE
8
BLACK
10
131.47
20
-109.83
40
0.4
0
CIRCLE
8
BLACK
10
131.47
20
-112.37
40
0.4
0
CIRCLE
8
BLACK
10
131.47
20
-114.91
40
0.4
0
CIRCLE
8
BLACK
10
131.47
20
-117.45
40
0.4
0
CIRCLE
8
BLACK
10
134.01
20
-107.29
40
0.4
0
CIRCLE
8
BLACK
10
134.01
20
-109.83
40
0.4
0
CIRCLE
8
BLACK
10
134.01
20
-112.37
40
0.4
0
CIRCLE
8
BLACK
10
134.01
20
-114.91
40
0.4
0
CIRCLE
8
BLACK
10
134.01
20
-117.45
40
0.4
0
CIRCLE
8
BLACK
10
134.01
20
-119.99
40
0.4
0
CIRCLE
8
BLACK
10
136.55
20
-107.29
40
0.4
0
CIRCLE
8
BLACK
10
136.55
20
-109.83
40
0.4
0
CIRCLE
8
BLACK
10
136.55
20
-117.45
40
0.4
0
CIRCLE
8
BLACK
10
136.55
20
-119.99
40
0.4
0
CIRCLE
8
BLACK
10
139.09
20
-107.29
40
0.4
0
CIRCLE
8
BLACK
10
139.09
20
-109.83
40
0.4
0
CIRCLE
8
BLACK
10
139.09
20
-117.45
40
0.4
0
CIRCLE
8
BLACK
10
139.09
20
-119.99
40
0.4
0
CIRCLE
8
BLACK
10
141.63
20
-107.29
40
0.4
0
CIRCLE
8
BLACK
10
141.63
20
-109.83
40
0.4
0
CIRCLE
8
BLACK
10
141.63
20
-112.37
40
0.4
0
CIRCLE
8
BLACK
10
141.63
20
-114.91
40
0.4
0
CIRCLE
8
BLACK
10
141.63
20
-117.45
40
0.4
0
CIRCLE
8
BLACK
10
141.63
20
-119.99
40
0.4
0
CIRCLE
8
BLACK
10
144.17
20
-109.83
40
0.4
0
CIRCLE
8
BLACK
10
144.17
20
-112.37
40
0.4
0
CIRCLE
8
BLACK
10
144.17
20
-114.91
40
0.4
0
CIRCLE
8
BLACK
10
144.17
20
-117.45
40
0.4
0
LINE
8
BLACK
6
CONTINUOUS
10
128.91
20
-79.73
11
128.91
21
-80.73
0
LINE
8
BLACK
6
CONTINUOUS
10
128.41
20
-80.23
11
129.41
21
-80.23
0
LINE
8
BLACK
6
CONTINUOUS
10
128.91
20
-82.27
11
128.91
21
-83.27
0
LINE
8
BLACK
6
CONTINUOUS
10
128.41
20
-82.77
11
129.41
21
-82.77
0
LINE
8
BLACK
6
CONTINUOUS
10
128.91
20
-143.23
11
128.91
21
-144.23
0
LINE
8
BLACK
6
CONTINUOUS
10
128.41
20
-143.73
11
129.41
21
-143.73
0
LINE
8
BLACK
6
CONTINUOUS
10
128.91
20
-145.77
11
128.91
21
-146.77
0
LINE
8
BLACK
6
CONTINUOUS
10
128.41
20
-146.27
11
129.41
21
-146.27
0
LINE
8
BLACK
6
CONTINUOUS
10
131.45
20
-79.73
11
131.45
21
-80.73
0
LINE
8
BLACK
6
CONTINUOUS
10
130.95
20
-80.23
11
131.95
21
-80.23
0
LINE
8
BLACK
6
CONTINUOUS
10
131.45
20
-82.27
11
131.45
21
-83.27
0
LINE
8
BLACK
6
CONTINUOUS
10
130.95
20
-82.77
11
131.95
21
-82.77
0
LINE
8
BLACK
6
CONTINUOUS
10
131.45
20
-143.23
11
131.45
21
-144.23
0
LINE
8
BLACK
6
CONTINUOUS
10
130.95
20
-143.73
11
131.95
21
-143.73
0
LINE
8
BLACK
6
CONTINUOUS
10
131.45
20
-145.77
11
131.45
21
-146.77
0
LINE
8
BLACK
6
CONTINUOUS
10
130.95
20
-146.27
11
131.95
21
-146.27
0
LINE
8
BLACK
6
CONTINUOUS
10
133.99
20
-79.73
11
133.99
21
-80.73
0
LINE
8
BLACK
6
CONTINUOUS
10
133.49
20
-80.23
11
134.49
21
-80.23
0
LINE
8
BLACK
6
CONTINUOUS
10
133.99
20
-82.27
11
133.99
21
-83.27
0
LINE
8
BLACK
6
CONTINUOUS
10
133.49
20
-82.77
11
134.49
21
-82.77
0
LINE
8
BLACK
6
CONTINUOUS
10
133.99
20
-143.23
11
133.99
21
-144.23
0
LINE
8
BLACK
6
CONTINUOUS
10
133.49
20
-143.73
11
134.49
21
-143.73
0
LINE
8
BLACK
6
CONTINUOUS
10
133.99
20
-145.77
11
133.99
21
-146.77
0
LINE
8
BLACK
6
CONTINUOUS
10
133.49
20
-146.27
11
134.49
21
-146.27
0
LINE
8
BLACK
6
CONTINUOUS
10
136.53
20
-79.73
11
136.53
21
-80.73
0
LINE
8
BLACK
6
CONTINUOUS
10
136.03
20
-80.23
11
137.03
21
-80.23
0
LINE
8
BLACK
6
CONTINUOUS
10
136.53
20
-82.27
11
136.53
21
-83.27
0
LINE
8
BLACK
6
CONTINUOUS
10
136.03
20
-82.77
11
137.03
21
-82.77
0
LINE
8
BLACK
6
CONTINUOUS
10
136.53
20
-143.23
11
136.53
21
-144.23
0
LINE
8
BLACK
6
CONTINUOUS
10
136.03
20
-143.73
11
137.03
21
-143.73
0
LINE
8
BLACK
6
CONTINUOUS
10
136.53
20
-145.77
11
136.53
21
-146.77
0
LINE
8
BLACK
6
CONTINUOUS
10
136.03
20
-146.27
11
137.03
21
-146.27
0
LINE
8
BLACK
6
CONTINUOUS
10
139.07
20
-79.73
11
139.07
21
-80.73
0
LINE
8
BLACK
6
CONTINUOUS
10
138.57
20
-80.23
11
139.57
21
-80.23
0
LINE
8
BLACK
6
CONTINUOUS
10
139.07
20
-82.27
11
139.07
21
-83.27
0
LINE
8
BLACK
6
CONTINUOUS
10
138.57
20
-82.77
11
139.57
21
-82.77
0
LINE
8
BLACK
6
CONTINUOUS
10
139.07
20
-143.23
11
139.07
21
-144.23
0
LINE
8
BLACK
6
CONTINUOUS
10
138.57
20
-143.73
11
139.57
21
-143.73
0
LINE
8
BLACK
6
CONTINUOUS
10
139.07
20
-145.77
11
139.07
21
-146.77
0
LINE
8
BLACK
6
CONTINUOUS
10
138.57
20
-146.27
11
139.57
21
-146.27
0
LINE
8
BLACK
6
CONTINUOUS
10
141.61
20
-79.73
11
141.61
21
-80.73
0
LINE
8
BLACK
6
CONTINUOUS
10
141.11
20
-80.23
11
142.11
21
-80.23
0
LINE
8
BLACK
6
CONTINUOUS
10
141.61
20
-82.27
11
141.61
21
-83.27
0
LINE
8
BLACK
6
CONTINUOUS
10
141.11
20
-82.77
11
142.11
21
-82.77
0
LINE
8
BLACK
6
CONTINUOUS
10
141.61
20
-143.23
11
141.61
21
-144.23
0
LINE
8
BLACK
6
CONTINUOUS
10
141.11
20
-143.73
11
142.11
21
-143.73
0
LINE
8
BLACK
6
CONTINUOUS
10
141.61
20
-145.77
11
141.61
21
-146.77
0
LINE
8
BLACK
6
CONTINUOUS
10
141.11
20
-146.27
11
142.11
21
-146.27
0
LINE
8
BLACK
6
CONTINUOUS
10
144.15
20
-79.73
11
144.15
21
-80.73
0
LINE
8
BLACK
6
CONTINUOUS
10
143.65
20
-80.23
11
144.65
21
-80.23
0
LINE
8
BLACK
6
CONTINUOUS
10
144.15
20
-82.27
11
144.15
21
-83.27
0
LINE
8
BLACK
6
CONTINUOUS
10
143.65
20
-82.77
11
144.65
21
-82.77
0
LINE
8
BLACK
6
CONTINUOUS
10
144.15
20
-143.23
11
144.15
21
-144.23
0
LINE
8
BLACK
6
CONTINUOUS
10
143.65
20
-143.73
11
144.65
21
-143.73
0
LINE
8
BLACK
6
CONTINUOUS
10
144.15
20
-145.77
11
144.15
21
-146.77
0
LINE
8
BLACK
6
CONTINUOUS
10
143.65
20
-146.27
11
144.65
21
-146.27
0
LINE
8
BLACK
6
CONTINUOUS
10
146.69
20
-79.73
11
146.69
21
-80.73
0
LINE
8
BLACK
6
CONTINUOUS
10
146.19
20
-80.23
11
147.19
21
-80.23
0
LINE
8
BLACK
6
CONTINUOUS
10
146.69
20
-82.27
11
146.69
21
-83.27
0
LINE
8
BLACK
6
CONTINUOUS
10
146.19
20
-82.77
11
147.19
21
-82.77
0
LINE
8
BLACK
6
CONTINUOUS
10
146.69
20
-143.23
11
146.69
21
-144.23
0
LINE
8
BLACK
6
CONTINUOUS
10
146.19
20
-143.73
11
147.19
21
-143.73
0
LINE
8
BLACK
6
CONTINUOUS
10
146.69
20
-145.77
11
146.69
21
-146.77
0
LINE
8
BLACK
6
CONTINUOUS
10
146.19
20
-146.27
11
147.19
21
-146.27
0
LINE
8
BLACK
6
CONTINUOUS
10
128.951
20
-151.77
11
128.951
21
-149.77
0
LINE
8
BLACK
6
CONTINUOUS
10
128.951
20
-149.77
11
129.427
21
-149.77
0
LINE
8
BLACK
6
CONTINUOUS
10
129.427
20
-149.77
11
129.713
21
-149.865
0
LINE
8
BLACK
6
CONTINUOUS
10
129.713
20
-149.865
11
129.904
21
-150.055
0
LINE
8
BLACK
6
CONTINUOUS
10
129.904
20
-150.055
11
129.999
21
-150.246
0
LINE
8
BLACK
6
CONTINUOUS
10
129.999
20
-150.246
11
130.094
21
-150.627
0
LINE
8
BLACK
6
CONTINUOUS
10
130.094
20
-150.627
11
130.094
21
-150.913
0
LINE
8
BLACK
6
CONTINUOUS
10
130.094
20
-150.913
11
129.999
21
-151.294
0
LINE
8
BLACK
6
CONTINUOUS
10
129.999
20
-151.294
11
129.904
21
-151.484
0
LINE
8
BLACK
6
CONTINUOUS
10
129.904
20
-151.484
11
129.713
21
-151.675
0
LINE
8
BLACK
6
CONTINUOUS
10
129.713
20
-151.675
11
129.427
21
-151.77
0
LINE
8
BLACK
6
CONTINUOUS
10
129.427
20
-151.77
11
128.951
21
-151.77
0
LINE
8
BLACK
6
CONTINUOUS
10
130.951
20
-151.77
11
130.951
21
-150.436
0
LINE
8
BLACK
6
CONTINUOUS
10
130.951
20
-150.817
11
131.046
21
-150.627
0
LINE
8
BLACK
6
CONTINUOUS
10
131.046
20
-150.627
11
131.142
21
-150.532
0
LINE
8
BLACK
6
CONTINUOUS
10
131.142
20
-150.532
11
131.332
21
-150.436
0
LINE
8
BLACK
6
CONTINUOUS
10
131.332
20
-150.436
11
131.523
21
-150.436
0
LINE
8
BLACK
6
CONTINUOUS
10
132.189
20
-151.77
11
132.189
21
-150.436
0
LINE
8
BLACK
6
CONTINUOUS
10
132.189
20
-149.77
11
132.094
21
-149.865
0
LINE
8
BLACK
6
CONTINUOUS
10
132.094
20
-149.865
11
132.189
21
-149.96
0
LINE
8
BLACK
6
CONTINUOUS
10
132.189
20
-149.96
11
132.285
21
-149.865
0
LINE
8
BLACK
6
CONTINUOUS
10
132.285
20
-149.865
11
132.189
21
-149.77
0
LINE
8
BLACK
6
CONTINUOUS
10
132.189
20
-149.77
11
132.189
21
-149.96
0
LINE
8
BLACK
6
CONTINUOUS
10
133.427
20
-151.77
11
133.237
21
-151.675
0
LINE
8
BLACK
6
CONTINUOUS
10
133.237
20
-151.675
11
133.142
21
-151.484
0
LINE
8
BLACK
6
CONTINUOUS
10
133.142
20
-151.484
11
133.142
21
-149.77
0
LINE
8
BLACK
6
CONTINUOUS
10
134.475
20
-151.77
11
134.285
21
-151.675
0
LINE
8
BLACK
6
CONTINUOUS
10
134.285
20
-151.675
11
134.189
21
-151.484
0
LINE
8
BLACK
6
CONTINUOUS
10
134.189
20
-151.484
11
134.189
21
-149.77
0
LINE
8
BLACK
6
CONTINUOUS
10
136.437
20
-151.77
11
136.437
21
-149.77
0
LINE
8
BLACK
6
CONTINUOUS
10
136.437
20
-149.77
11
137.104
21
-151.198
0
LINE
8
BLACK
6
CONTINUOUS
10
137.104
20
-151.198
11
137.77
21
-149.77
0
LINE
8
BLACK
6
CONTINUOUS
10
137.77
20
-149.77
11
137.77
21
-151.77
0
LINE
8
BLACK
6
CONTINUOUS
10
139.58
20
-151.77
11
139.58
21
-150.722
0
LINE
8
BLACK
6
CONTINUOUS
10
139.58
20
-150.722
11
139.485
21
-150.532
0
LINE
8
BLACK
6
CONTINUOUS
10
139.485
20
-150.532
11
139.294
21
-150.436
0
LINE
8
BLACK
6
CONTINUOUS
10
139.294
20
-150.436
11
138.913
21
-150.436
0
LINE
8
BLACK
6
CONTINUOUS
10
138.913
20
-150.436
11
138.723
21
-150.532
0
LINE
8
BLACK
6
CONTINUOUS
10
139.58
20
-151.675
11
139.389
21
-151.77
0
LINE
8
BLACK
6
CONTINUOUS
10
139.389
20
-151.77
11
138.913
21
-151.77
0
LINE
8
BLACK
6
CONTINUOUS
10
138.913
20
-151.77
11
138.723
21
-151.675
0
LINE
8
BLACK
6
CONTINUOUS
10
138.723
20
-151.675
11
138.627
21
-151.484
0
LINE
8
BLACK
6
CONTINUOUS
10
138.627
20
-151.484
11
138.627
21
-151.294
0
LINE
8
BLACK
6
CONTINUOUS
10
138.627
20
-151.294
11
138.723
21
-151.103
0
LINE
8
BLACK
6
CONTINUOUS
10
138.723
20
-151.103
11
138.913
21
-151.008
0
LINE
8
BLACK
6
CONTINUOUS
10
138.913
20
-151.008
11
139.389
21
-151.008
0
LINE
8
BLACK
6
CONTINUOUS
10
139.389
20
-151.008
11
139.58
21
-150.913
0
LINE
8
BLACK
6
CONTINUOUS
10
140.532
20
-150.436
11
140.532
21
-152.436
0
LINE
8
BLACK
6
CONTINUOUS
10
140.532
20
-150.532
11
140.723
21
-150.436
0
LINE
8
BLACK
6
CONTINUOUS
10
140.723
20
-150.436
11
141.104
21
-150.436
0
LINE
8
BLACK
6
CONTINUOUS
10
141.104
20
-150.436
11
141.294
21
-150.532
0
LINE
8
BLACK
6
CONTINUOUS
10
141.294
20
-150.532
11
141.389
21
-150.627
0
LINE
8
BLACK
6
CONTINUOUS
10
141.389
20
-150.627
11
141.485
21
-150.817
0
LINE
8
BLACK
6
CONTINUOUS
10
141.485
20
-150.817
11
141.485
21
-151.389
0
LINE
8
BLACK
6
CONTINUOUS
10
141.485
20
-151.389
11
141.389
21
-151.579
0
LINE
8
BLACK
6
CONTINUOUS
10
141.389
20
-151.579
11
141.294
21
-151.675
0
LINE
8
BLACK
6
CONTINUOUS
10
141.294
20
-151.675
11
141.104
21
-151.77
0
LINE
8
BLACK
6
CONTINUOUS
10
141.104
20
-151.77
11
140.723
21
-151.77
0
LINE
8
BLACK
6
CONTINUOUS
10
140.723
20
-151.77
11
140.532
21
-151.675
0
LINE
8
BLACK
6
CONTINUOUS
10
142.342
20
-151.579
11
142.437
21
-151.675
0
LINE
8
BLACK
6
CONTINUOUS
10
142.437
20
-151.675
11
142.342
21
-151.77
0
LINE
8
BLACK
6
CONTINUOUS
10
142.342
20
-151.77
11
142.246
21
-151.675
0
LINE
8
BLACK
6
CONTINUOUS
10
142.246
20
-151.675
11
142.342
21
-151.579
0
LINE
8
BLACK
6
CONTINUOUS
10
142.342
20
-151.579
11
142.342
21
-151.77
0
LINE
8
BLACK
6
CONTINUOUS
10
142.342
20
-150.532
11
142.437
21
-150.627
0
LINE
8
BLACK
6
CONTINUOUS
10
142.437
20
-150.627
11
142.342
21
-150.722
0
LINE
8
BLACK
6
CONTINUOUS
10
142.342
20
-150.722
11
142.246
21
-150.627
0
LINE
8
BLACK
6
CONTINUOUS
10
142.246
20
-150.627
11
142.342
21
-150.532
0
LINE
8
BLACK
6
CONTINUOUS
10
142.342
20
-150.532
11
142.342
21
-150.722
0
LINE
8
BLACK
6
CONTINUOUS
10
126.075
20
-155.035
11
126.475
21
-155.435
0
LINE
8
BLACK
6
CONTINUOUS
10
126.475
20
-155.035
11
126.075
21
-155.435
0
LINE
8
BLACK
6
CONTINUOUS
10
129.332
20
-153.97
11
129.523
21
-153.97
0
LINE
8
BLACK
6
CONTINUOUS
10
129.523
20
-153.97
11
129.713
21
-154.065
0
LINE
8
BLACK
6
CONTINUOUS
10
129.713
20
-154.065
11
129.808
21
-154.16
0
LINE
8
BLACK
6
CONTINUOUS
10
129.808
20
-154.16
11
129.904
21
-154.351
0
LINE
8
BLACK
6
CONTINUOUS
10
129.904
20
-154.351
11
129.999
21
-154.732
0
LINE
8
BLACK
6
CONTINUOUS
10
129.999
20
-154.732
11
129.999
21
-155.208
0
LINE
8
BLACK
6
CONTINUOUS
10
129.999
20
-155.208
11
129.904
21
-155.589
0
LINE
8
BLACK
6
CONTINUOUS
10
129.904
20
-155.589
11
129.808
21
-155.779
0
LINE
8
BLACK
6
CONTINUOUS
10
129.808
20
-155.779
11
129.713
21
-155.875
0
LINE
8
BLACK
6
CONTINUOUS
10
129.713
20
-155.875
11
129.523
21
-155.97
0
LINE
8
BLACK
6
CONTINUOUS
10
129.523
20
-155.97
11
129.332
21
-155.97
0
LINE
8
BLACK
6
CONTINUOUS
10
129.332
20
-155.97
11
129.142
21
-155.875
0
LINE
8
BLACK
6
CONTINUOUS
10
129.142
20
-155.875
11
129.046
21
-155.779
0
LINE
8
BLACK
6
CONTINUOUS
10
129.046
20
-155.779
11
128.951
21
-155.589
0
LINE
8
BLACK
6
CONTINUOUS
10
128.951
20
-155.589
11
128.856
21
-155.208
0
LINE
8
BLACK
6
CONTINUOUS
10
128.856
20
-155.208
11
128.856
21
-154.732
0
LINE
8
BLACK
6
CONTINUOUS
10
128.856
20
-154.732
11
128.951
21
-154.351
0
LINE
8
BLACK
6
CONTINUOUS
10
128.951
20
-154.351
11
129.046
21
-154.16
0
LINE
8
BLACK
6
CONTINUOUS
10
129.046
20
-154.16
11
129.142
21
-154.065
0
LINE
8
BLACK
6
CONTINUOUS
10
129.142
20
-154.065
11
129.332
21
-153.97
0
LINE
8
BLACK
6
CONTINUOUS
10
130.856
20
-155.779
11
130.951
21
-155.875
0
LINE
8
BLACK
6
CONTINUOUS
10
130.951
20
-155.875
11
130.856
21
-155.97
0
LINE
8
BLACK
6
CONTINUOUS
10
130.856
20
-155.97
11
130.761
21
-155.875
0
LINE
8
BLACK
6
CONTINUOUS
10
130.761
20
-155.875
11
130.856
21
-155.779
0
LINE
8
BLACK
6
CONTINUOUS
10
130.856
20
-155.779
11
130.856
21
-155.97
0
LINE
8
BLACK
6
CONTINUOUS
10
132.665
20
-154.636
11
132.665
21
-155.97
0
LINE
8
BLACK
6
CONTINUOUS
10
132.189
20
-153.875
11
131.713
21
-155.303
0
LINE
8
BLACK
6
CONTINUOUS
10
131.713
20
-155.303
11
132.951
21
-155.303
0
LINE
8
BLACK
6
CONTINUOUS
10
134.094
20
-153.97
11
134.285
21
-153.97
0
LINE
8
BLACK
6
CONTINUOUS
10
134.285
20
-153.97
11
134.475
21
-154.065
0
LINE
8
BLACK
6
CONTINUOUS
10
134.475
20
-154.065
11
134.57
21
-154.16
0
LINE
8
BLACK
6
CONTINUOUS
10
134.57
20
-154.16
11
134.665
21
-154.351
0
LINE
8
BLACK
6
CONTINUOUS
10
134.665
20
-154.351
11
134.761
21
-154.732
0
LINE
8
BLACK
6
CONTINUOUS
10
134.761
20
-154.732
11
134.761
21
-155.208
0
LINE
8
BLACK
6
CONTINUOUS
10
134.761
20
-155.208
11
134.665
21
-155.589
0
LINE
8
BLACK
6
CONTINUOUS
10
134.665
20
-155.589
11
134.57
21
-155.779
0
LINE
8
BLACK
6
CONTINUOUS
10
134.57
20
-155.779
11
134.475
21
-155.875
0
LINE
8
BLACK
6
CONTINUOUS
10
134.475
20
-155.875
11
134.285
21
-155.97
0
LINE
8
BLACK
6
CONTINUOUS
10
134.285
20
-155.97
11
134.094
21
-155.97
0
LINE
8
BLACK
6
CONTINUOUS
10
134.094
20
-155.97
11
133.904
21
-155.875
0
LINE
8
BLACK
6
CONTINUOUS
10
133.904
20
-155.875
11
133.808
21
-155.779
0
LINE
8
BLACK
6
CONTINUOUS
10
133.808
20
-155.779
11
133.713
21
-155.589
0
LINE
8
BLACK
6
CONTINUOUS
10
133.713
20
-155.589
11
133.618
21
-155.208
0
LINE
8
BLACK
6
CONTINUOUS
10
133.618
20
-155.208
11
133.618
21
-154.732
0
LINE
8
BLACK
6
CONTINUOUS
10
133.618
20
-154.732
11
133.713
21
-154.351
0
LINE
8
BLACK
6
CONTINUOUS
10
133.713
20
-154.351
11
133.808
21
-154.16
0
LINE
8
BLACK
6
CONTINUOUS
10
133.808
20
-154.16
11
133.904
21
-154.065
0
LINE
8
BLACK
6
CONTINUOUS
10
133.904
20
-154.065
11
134.094
21
-153.97
0
LINE
8
BLACK
6
CONTINUOUS
10
135.999
20
-153.97
11
136.189
21
-153.97
0
LINE
8
BLACK
6
CONTINUOUS
10
136.189
20
-153.97
11
136.38
21
-154.065
0
LINE
8
BLACK
6
CONTINUOUS
10
136.38
20
-154.065
11
136.475
21
-154.16
0
LINE
8
BLACK
6
CONTINUOUS
10
136.475
20
-154.16
11
136.57
21
-154.351
0
LINE
8
BLACK
6
CONTINUOUS
10
136.57
20
-154.351
11
136.665
21
-154.732
0
LINE
8
BLACK
6
CONTINUOUS
10
136.665
20
-154.732
11
136.665
21
-155.208
0
LINE
8
BLACK
6
CONTINUOUS
10
136.665
20
-155.208
11
136.57
21
-155.589
0
LINE
8
BLACK
6
CONTINUOUS
10
136.57
20
-155.589
11
136.475
21
-155.779
0
LINE
8
BLACK
6
CONTINUOUS
10
136.475
20
-155.779
11
136.38
21
-155.875
0
LINE
8
BLACK
6
CONTINUOUS
10
136.38
20
-155.875
11
136.189
21
-155.97
0
LINE
8
BLACK
6
CONTINUOUS
10
136.189
20
-155.97
11
135.999
21
-155.97
0
LINE
8
BLACK
6
CONTINUOUS
10
135.999
20
-155.97
11
135.808
21
-155.875
0
LINE
8
BLACK
6
CONTINUOUS
10
135.808
20
-155.875
11
135.713
21
-155.779
0
LINE
8
BLACK
6
CONTINUOUS
10
135.713
20
-155.779
11
135.618
21
-155.589
0
LINE
8
BLACK
6
CONTINUOUS
10
135.618
20
-155.589
11
135.523
21
-155.208
0
LINE
8
BLACK
6
CONTINUOUS
10
135.523
20
-155.208
11
135.523
21
-154.732
0
LINE
8
BLACK
6
CONTINUOUS
10
135.523
20
-154.732
11
135.618
21
-154.351
0
LINE
8
BLACK
6
CONTINUOUS
10
135.618
20
-154.351
11
135.713
21
-154.16
0
LINE
8
BLACK
6
CONTINUOUS
10
135.713
20
-154.16
11
135.808
21
-154.065
0
LINE
8
BLACK
6
CONTINUOUS
10
135.808
20
-154.065
11
135.999
21
-153.97
0
LINE
8
BLACK
6
CONTINUOUS
10
137.523
20
-155.97
11
137.523
21
-154.636
0
LINE
8
BLACK
6
CONTINUOUS
10
137.523
20
-154.827
11
137.618
21
-154.732
0
LINE
8
BLACK
6
CONTINUOUS
10
137.618
20
-154.732
11
137.808
21
-154.636
0
LINE
8
BLACK
6
CONTINUOUS
10
137.808
20
-154.636
11
138.094
21
-154.636
0
LINE
8
BLACK
6
CONTINUOUS
10
138.094
20
-154.636
11
138.285
21
-154.732
0
LINE
8
BLACK
6
CONTINUOUS
10
138.285
20
-154.732
11
138.38
21
-154.922
0
LINE
8
BLACK
6
CONTINUOUS
10
138.38
20
-154.922
11
138.38
21
-155.97
0
LINE
8
BLACK
6
CONTINUOUS
10
138.38
20
-154.922
11
138.475
21
-154.732
0
LINE
8
BLACK
6
CONTINUOUS
10
138.475
20
-154.732
11
138.665
21
-154.636
0
LINE
8
BLACK
6
CONTINUOUS
10
138.665
20
-154.636
11
138.951
21
-154.636
0
LINE
8
BLACK
6
CONTINUOUS
10
138.951
20
-154.636
11
139.142
21
-154.732
0
LINE
8
BLACK
6
CONTINUOUS
10
139.142
20
-154.732
11
139.237
21
-154.922
0
LINE
8
BLACK
6
CONTINUOUS
10
139.237
20
-154.922
11
139.237
21
-155.97
0
LINE
8
BLACK
6
CONTINUOUS
10
140.189
20
-155.97
11
140.189
21
-154.636
0
LINE
8
BLACK
6
CONTINUOUS
10
140.189
20
-154.827
11
140.285
21
-154.732
0
LINE
8
BLACK
6
CONTINUOUS
10
140.285
20
-154.732
11
140.475
21
-154.636
0
LINE
8
BLACK
6
CONTINUOUS
10
140.475
20
-154.636
11
140.761
21
-154.636
0
LINE
8
BLACK
6
CONTINUOUS
10
140.761
20
-154.636
11
140.951
21
-154.732
0
LINE
8
BLACK
6
CONTINUOUS
10
140.951
20
-154.732
11
141.046
21
-154.922
0
LINE
8
BLACK
6
CONTINUOUS
10
141.046
20
-154.922
11
141.046
21
-155.97
0
LINE
8
BLACK
6
CONTINUOUS
10
141.046
20
-154.922
11
141.142
21
-154.732
0
LINE
8
BLACK
6
CONTINUOUS
10
141.142
20
-154.732
11
141.332
21
-154.636
0
LINE
8
BLACK
6
CONTINUOUS
10
141.332
20
-154.636
11
141.618
21
-154.636
0
LINE
8
BLACK
6
CONTINUOUS
10
141.618
20
-154.636
11
141.808
21
-154.732
0
LINE
8
BLACK
6
CONTINUOUS
10
141.808
20
-154.732
11
141.904
21
-154.922
0
LINE
8
BLACK
6
CONTINUOUS
10
141.904
20
-154.922
11
141.904
21
-155.97
0
LINE
8
BLACK
6
CONTINUOUS
10
145.485
20
-153.875
11
143.77
21
-156.446
0
LINE
8
BLACK
6
CONTINUOUS
10
147.732
20
-153.97
11
147.923
21
-153.97
0
LINE
8
BLACK
6
CONTINUOUS
10
147.923
20
-153.97
11
148.113
21
-154.065
0
LINE
8
BLACK
6
CONTINUOUS
10
148.113
20
-154.065
11
148.208
21
-154.16
0
LINE
8
BLACK
6
CONTINUOUS
10
148.208
20
-154.16
11
148.304
21
-154.351
0
LINE
8
BLACK
6
CONTINUOUS
10
148.304
20
-154.351
11
148.399
21
-154.732
0
LINE
8
BLACK
6
CONTINUOUS
10
148.399
20
-154.732
11
148.399
21
-155.208
0
LINE
8
BLACK
6
CONTINUOUS
10
148.399
20
-155.208
11
148.304
21
-155.589
0
LINE
8
BLACK
6
CONTINUOUS
10
148.304
20
-155.589
11
148.208
21
-155.779
0
LINE
8
BLACK
6
CONTINUOUS
10
148.208
20
-155.779
11
148.113
21
-155.875
0
LINE
8
BLACK
6
CONTINUOUS
10
148.113
20
-155.875
11
147.923
21
-155.97
0
LINE
8
BLACK
6
CONTINUOUS
10
147.923
20
-155.97
11
147.732
21
-155.97
0
LINE
8
BLACK
6
CONTINUOUS
10
147.732
20
-155.97
11
147.542
21
-155.875
0
LINE
8
BLACK
6
CONTINUOUS
10
147.542
20
-155.875
11
147.446
21
-155.779
0
LINE
8
BLACK
6
CONTINUOUS
10
147.446
20
-155.779
11
147.351
21
-155.589
0
LINE
8
BLACK
6
CONTINUOUS
10
147.351
20
-155.589
11
147.256
21
-155.208
0
LINE
8
BLACK
6
CONTINUOUS
10
147.256
20
-155.208
11
147.256
21
-154.732
0
LINE
8
BLACK
6
CONTINUOUS
10
147.256
20
-154.732
11
147.351
21
-154.351
0
LINE
8
BLACK
6
CONTINUOUS
10
147.351
20
-154.351
11
147.446
21
-154.16
0
LINE
8
BLACK
6
CONTINUOUS
10
147.446
20
-154.16
11
147.542
21
-154.065
0
LINE
8
BLACK
6
CONTINUOUS
10
147.542
20
-154.065
11
147.732
21
-153.97
0
LINE
8
BLACK
6
CONTINUOUS
10
149.256
20
-155.779
11
149.351
21
-155.875
0
LINE
8
BLACK
6
CONTINUOUS
10
149.351
20
-155.875
11
149.256
21
-155.97
0
LINE
8
BLACK
6
CONTINUOUS
10
149.256
20
-155.97
11
149.161
21
-155.875
0
LINE
8
BLACK
6
CONTINUOUS
10
149.161
20
-155.875
11
149.256
21
-155.779
0
LINE
8
BLACK
6
CONTINUOUS
10
149.256
20
-155.779
11
149.256
21
-155.97
0
LINE
8
BLACK
6
CONTINUOUS
10
150.589
20
-153.97
11
150.78
21
-153.97
0
LINE
8
BLACK
6
CONTINUOUS
10
150.78
20
-153.97
11
150.97
21
-154.065
0
LINE
8
BLACK
6
CONTINUOUS
10
150.97
20
-154.065
11
151.065
21
-154.16
0
LINE
8
BLACK
6
CONTINUOUS
10
151.065
20
-154.16
11
151.161
21
-154.351
0
LINE
8
BLACK
6
CONTINUOUS
10
151.161
20
-154.351
11
151.256
21
-154.732
0
LINE
8
BLACK
6
CONTINUOUS
10
151.256
20
-154.732
11
151.256
21
-155.208
0
LINE
8
BLACK
6
CONTINUOUS
10
151.256
20
-155.208
11
151.161
21
-155.589
0
LINE
8
BLACK
6
CONTINUOUS
10
151.161
20
-155.589
11
151.065
21
-155.779
0
LINE
8
BLACK
6
CONTINUOUS
10
151.065
20
-155.779
11
150.97
21
-155.875
0
LINE
8
BLACK
6
CONTINUOUS
10
150.97
20
-155.875
11
150.78
21
-155.97
0
LINE
8
BLACK
6
CONTINUOUS
10
150.78
20
-155.97
11
150.589
21
-155.97
0
LINE
8
BLACK
6
CONTINUOUS
10
150.589
20
-155.97
11
150.399
21
-155.875
0
LINE
8
BLACK
6
CONTINUOUS
10
150.399
20
-155.875
11
150.304
21
-155.779
0
LINE
8
BLACK
6
CONTINUOUS
10
150.304
20
-155.779
11
150.208
21
-155.589
0
LINE
8
BLACK
6
CONTINUOUS
10
150.208
20
-155.589
11
150.113
21
-155.208
0
LINE
8
BLACK
6
CONTINUOUS
10
150.113
20
-155.208
11
150.113
21
-154.732
0
LINE
8
BLACK
6
CONTINUOUS
10
150.113
20
-154.732
11
150.208
21
-154.351
0
LINE
8
BLACK
6
CONTINUOUS
10
150.208
20
-154.351
11
150.304
21
-154.16
0
LINE
8
BLACK
6
CONTINUOUS
10
150.304
20
-154.16
11
150.399
21
-154.065
0
LINE
8
BLACK
6
CONTINUOUS
10
150.399
20
-154.065
11
150.589
21
-153.97
0
LINE
8
BLACK
6
CONTINUOUS
10
153.161
20
-155.97
11
152.018
21
-155.97
0
LINE
8
BLACK
6
CONTINUOUS
10
152.589
20
-155.97
11
152.589
21
-153.97
0
LINE
8
BLACK
6
CONTINUOUS
10
152.589
20
-153.97
11
152.399
21
-154.255
0
LINE
8
BLACK
6
CONTINUOUS
10
152.399
20
-154.255
11
152.208
21
-154.446
0
LINE
8
BLACK
6
CONTINUOUS
10
152.208
20
-154.446
11
152.018
21
-154.541
0
LINE
8
BLACK
6
CONTINUOUS
10
154.97
20
-153.97
11
154.018
21
-153.97
0
LINE
8
BLACK
6
CONTINUOUS
10
154.018
20
-153.97
11
153.923
21
-154.922
0
LINE
8
BLACK
6
CONTINUOUS
10
153.923
20
-154.922
11
154.018
21
-154.827
0
LINE
8
BLACK
6
CONTINUOUS
10
154.018
20
-154.827
11
154.208
21
-154.732
0
LINE
8
BLACK
6
CONTINUOUS
10
154.208
20
-154.732
11
154.685
21
-154.732
0
LINE
8
BLACK
6
CONTINUOUS
10
154.685
20
-154.732
11
154.875
21
-154.827
0
LINE
8
BLACK
6
CONTINUOUS
10
154.875
20
-154.827
11
154.97
21
-154.922
0
LINE
8
BLACK
6
CONTINUOUS
10
154.97
20
-154.922
11
155.065
21
-155.113
0
LINE
8
BLACK
6
CONTINUOUS
10
155.065
20
-155.113
11
155.065
21
-155.589
0
LINE
8
BLACK
6
CONTINUOUS
10
155.065
20
-155.589
11
154.97
21
-155.779
0
LINE
8
BLACK
6
CONTINUOUS
10
154.97
20
-155.779
11
154.875
21
-155.875
0
LINE
8
BLACK
6
CONTINUOUS
10
154.875
20
-155.875
11
154.685
21
-155.97
0
LINE
8
BLACK
6
CONTINUOUS
10
154.685
20
-155.97
11
154.208
21
-155.97
0
LINE
8
BLACK
6
CONTINUOUS
10
154.208
20
-155.97
11
154.018
21
-155.875
0
LINE
8
BLACK
6
CONTINUOUS
10
154.018
20
-155.875
11
153.923
21
-155.779
0
LINE
8
BLACK
6
CONTINUOUS
10
155.732
20
-153.97
11
157.065
21
-153.97
0
LINE
8
BLACK
6
CONTINUOUS
10
157.065
20
-153.97
11
156.208
21
-155.97
0
LINE
8
BLACK
6
CONTINUOUS
10
157.732
20
-153.97
11
157.732
21
-154.351
0
LINE
8
BLACK
6
CONTINUOUS
10
158.494
20
-153.97
11
158.494
21
-154.351
0
LINE
8
BLACK
6
CONTINUOUS
10
161.123
20
-156.732
11
161.027
21
-156.636
0
LINE
8
BLACK
6
CONTINUOUS
10
161.027
20
-156.636
11
160.837
21
-156.351
0
LINE
8
BLACK
6
CONTINUOUS
10
160.837
20
-156.351
11
160.742
21
-156.16
0
LINE
8
BLACK
6
CONTINUOUS
10
160.742
20
-156.16
11
160.646
21
-155.875
0
LINE
8
BLACK
6
CONTINUOUS
10
160.646
20
-155.875
11
160.551
21
-155.398
0
LINE
8
BLACK
6
CONTINUOUS
10
160.551
20
-155.398
11
160.551
21
-155.017
0
LINE
8
BLACK
6
CONTINUOUS
10
160.551
20
-155.017
11
160.646
21
-154.541
0
LINE
8
BLACK
6
CONTINUOUS
10
160.646
20
-154.541
11
160.742
21
-154.255
0
LINE
8
BLACK
6
CONTINUOUS
10
160.742
20
-154.255
11
160.837
21
-154.065
0
LINE
8
BLACK
6
CONTINUOUS
10
160.837
20
-154.065
11
161.027
21
-153.779
0
LINE
8
BLACK
6
CONTINUOUS
10
161.027
20
-153.779
11
161.123
21
-153.684
0
LINE
8
BLACK
6
CONTINUOUS
10
162.932
20
-155.97
11
161.789
21
-155.97
0
LINE
8
BLACK
6
CONTINUOUS
10
162.361
20
-155.97
11
162.361
21
-153.97
0
LINE
8
BLACK
6
CONTINUOUS
10
162.361
20
-153.97
11
162.17
21
-154.255
0
LINE
8
BLACK
6
CONTINUOUS
10
162.17
20
-154.255
11
161.98
21
-154.446
0
LINE
8
BLACK
6
CONTINUOUS
10
161.98
20
-154.446
11
161.789
21
-154.541
0
LINE
8
BLACK
6
CONTINUOUS
10
163.694
20
-154.16
11
163.789
21
-154.065
0
LINE
8
BLACK
6
CONTINUOUS
10
163.789
20
-154.065
11
163.98
21
-153.97
0
LINE
8
BLACK
6
CONTINUOUS
10
163.98
20
-153.97
11
164.456
21
-153.97
0
LINE
8
BLACK
6
CONTINUOUS
10
164.456
20
-153.97
11
164.646
21
-154.065
0
LINE
8
BLACK
6
CONTINUOUS
10
164.646
20
-154.065
11
164.742
21
-154.16
0
LINE
8
BLACK
6
CONTINUOUS
10
164.742
20
-154.16
11
164.837
21
-154.351
0
LINE
8
BLACK
6
CONTINUOUS
10
164.837
20
-154.351
11
164.837
21
-154.541
0
LINE
8
BLACK
6
CONTINUOUS
10
164.837
20
-154.541
11
164.742
21
-154.827
0
LINE
8
BLACK
6
CONTINUOUS
10
164.742
20
-154.827
11
163.599
21
-155.97
0
LINE
8
BLACK
6
CONTINUOUS
10
163.599
20
-155.97
11
164.837
21
-155.97
0
LINE
8
BLACK
6
CONTINUOUS
10
166.894
20
-155.97
11
166.894
21
-153.97
0
LINE
8
BLACK
6
CONTINUOUS
10
167.751
20
-155.97
11
167.751
21
-154.922
0
LINE
8
BLACK
6
CONTINUOUS
10
167.751
20
-154.922
11
167.656
21
-154.732
0
LINE
8
BLACK
6
CONTINUOUS
10
167.656
20
-154.732
11
167.465
21
-154.636
0
LINE
8
BLACK
6
CONTINUOUS
10
167.465
20
-154.636
11
167.18
21
-154.636
0
LINE
8
BLACK
6
CONTINUOUS
10
167.18
20
-154.636
11
166.989
21
-154.732
0
LINE
8
BLACK
6
CONTINUOUS
10
166.989
20
-154.732
11
166.894
21
-154.827
0
LINE
8
BLACK
6
CONTINUOUS
10
168.989
20
-155.97
11
168.799
21
-155.875
0
LINE
8
BLACK
6
CONTINUOUS
10
168.799
20
-155.875
11
168.704
21
-155.779
0
LINE
8
BLACK
6
CONTINUOUS
10
168.704
20
-155.779
11
168.608
21
-155.589
0
LINE
8
BLACK
6
CONTINUOUS
10
168.608
20
-155.589
11
168.608
21
-155.017
0
LINE
8
BLACK
6
CONTINUOUS
10
168.608
20
-155.017
11
168.704
21
-154.827
0
LINE
8
BLACK
6
CONTINUOUS
10
168.704
20
-154.827
11
168.799
21
-154.732
0
LINE
8
BLACK
6
CONTINUOUS
10
168.799
20
-154.732
11
168.989
21
-154.636
0
LINE
8
BLACK
6
CONTINUOUS
10
168.989
20
-154.636
11
169.275
21
-154.636
0
LINE
8
BLACK
6
CONTINUOUS
10
169.275
20
-154.636
11
169.465
21
-154.732
0
LINE
8
BLACK
6
CONTINUOUS
10
169.465
20
-154.732
11
169.561
21
-154.827
0
LINE
8
BLACK
6
CONTINUOUS
10
169.561
20
-154.827
11
169.656
21
-155.017
0
LINE
8
BLACK
6
CONTINUOUS
10
169.656
20
-155.017
11
169.656
21
-155.589
0
LINE
8
BLACK
6
CONTINUOUS
10
169.656
20
-155.589
11
169.561
21
-155.779
0
LINE
8
BLACK
6
CONTINUOUS
10
169.561
20
-155.779
11
169.465
21
-155.875
0
LINE
8
BLACK
6
CONTINUOUS
10
169.465
20
-155.875
11
169.275
21
-155.97
0
LINE
8
BLACK
6
CONTINUOUS
10
169.275
20
-155.97
11
168.989
21
-155.97
0
LINE
8
BLACK
6
CONTINUOUS
10
170.799
20
-155.97
11
170.608
21
-155.875
0
LINE
8
BLACK
6
CONTINUOUS
10
170.608
20
-155.875
11
170.513
21
-155.684
0
LINE
8
BLACK
6
CONTINUOUS
10
170.513
20
-155.684
11
170.513
21
-153.97
0
LINE
8
BLACK
6
CONTINUOUS
10
172.323
20
-155.875
11
172.132
21
-155.97
0
LINE
8
BLACK
6
CONTINUOUS
10
172.132
20
-155.97
11
171.751
21
-155.97
0
LINE
8
BLACK
6
CONTINUOUS
10
171.751
20
-155.97
11
171.561
21
-155.875
0
LINE
8
BLACK
6
CONTINUOUS
10
171.561
20
-155.875
11
171.465
21
-155.684
0
LINE
8
BLACK
6
CONTINUOUS
10
171.465
20
-155.684
11
171.465
21
-154.922
0
LINE
8
BLACK
6
CONTINUOUS
10
171.465
20
-154.922
11
171.561
21
-154.732
0
LINE
8
BLACK
6
CONTINUOUS
10
171.561
20
-154.732
11
171.751
21
-154.636
0
LINE
8
BLACK
6
CONTINUOUS
10
171.751
20
-154.636
11
172.132
21
-154.636
0
LINE
8
BLACK
6
CONTINUOUS
10
172.132
20
-154.636
11
172.323
21
-154.732
0
LINE
8
BLACK
6
CONTINUOUS
10
172.323
20
-154.732
11
172.418
21
-154.922
0
LINE
8
BLACK
6
CONTINUOUS
10
172.418
20
-154.922
11
172.418
21
-155.113
0
LINE
8
BLACK
6
CONTINUOUS
10
172.418
20
-155.113
11
171.465
21
-155.303
0
LINE
8
BLACK
6
CONTINUOUS
10
173.18
20
-155.875
11
173.37
21
-155.97
0
LINE
8
BLACK
6
CONTINUOUS
10
173.37
20
-155.97
11
173.751
21
-155.97
0
LINE
8
BLACK
6
CONTINUOUS
10
173.751
20
-155.97
11
173.942
21
-155.875
0
LINE
8
BLACK
6
CONTINUOUS
10
173.942
20
-155.875
11
174.037
21
-155.684
0
LINE
8
BLACK
6
CONTINUOUS
10
174.037
20
-155.684
11
174.037
21
-155.589
0
LINE
8
BLACK
6
CONTINUOUS
10
174.037
20
-155.589
11
173.942
21
-155.398
0
LINE
8
BLACK
6
CONTINUOUS
10
173.942
20
-155.398
11
173.751
21
-155.303
0
LINE
8
BLACK
6
CONTINUOUS
10
173.751
20
-155.303
11
173.465
21
-155.303
0
LINE
8
BLACK
6
CONTINUOUS
10
173.465
20
-155.303
11
173.275
21
-155.208
0
LINE
8
BLACK
6
CONTINUOUS
10
173.275
20
-155.208
11
173.18
21
-155.017
0
LINE
8
BLACK
6
CONTINUOUS
10
173.18
20
-155.017
11
173.18
21
-154.922
0
LINE
8
BLACK
6
CONTINUOUS
10
173.18
20
-154.922
11
173.275
21
-154.732
0
LINE
8
BLACK
6
CONTINUOUS
10
173.275
20
-154.732
11
173.465
21
-154.636
0
LINE
8
BLACK
6
CONTINUOUS
10
173.465
20
-154.636
11
173.751
21
-154.636
0
LINE
8
BLACK
6
CONTINUOUS
10
173.751
20
-154.636
11
173.942
21
-154.732
0
LINE
8
BLACK
6
CONTINUOUS
10
174.704
20
-156.732
11
174.799
21
-156.636
0
LINE
8
BLACK
6
CONTINUOUS
10
174.799
20
-156.636
11
174.989
21
-156.351
0
LINE
8
BLACK
6
CONTINUOUS
10
174.989
20
-156.351
11
175.085
21
-156.16
0
LINE
8
BLACK
6
CONTINUOUS
10
175.085
20
-156.16
11
175.18
21
-155.875
0
LINE
8
BLACK
6
CONTINUOUS
10
175.18
20
-155.875
11
175.275
21
-155.398
0
LINE
8
BLACK
6
CONTINUOUS
10
175.275
20
-155.398
11
175.275
21
-155.017
0
LINE
8
BLACK
6
CONTINUOUS
10
175.275
20
-155.017
11
175.18
21
-154.541
0
LINE
8
BLACK
6
CONTINUOUS
10
175.18
20
-154.541
11
175.085
21
-154.255
0
LINE
8
BLACK
6
CONTINUOUS
10
175.085
20
-154.255
11
174.989
21
-154.065
0
LINE
8
BLACK
6
CONTINUOUS
10
174.989
20
-154.065
11
174.799
21
-153.779
0
LINE
8
BLACK
6
CONTINUOUS
10
174.799
20
-153.779
11
174.704
21
-153.684
0
CIRCLE
8
BLACK
10
126.075
20
-157.875
40
0.4
0
LINE
8
BLACK
6
CONTINUOUS
10
129.332
20
-156.61
11
129.523
21
-156.61
0
LINE
8
BLACK
6
CONTINUOUS
10
129.523
20
-156.61
11
129.713
21
-156.705
0
LINE
8
BLACK
6
CONTINUOUS
10
129.713
20
-156.705
11
129.808
21
-156.8
0
LINE
8
BLACK
6
CONTINUOUS
10
129.808
20
-156.8
11
129.904
21
-156.991
0
LINE
8
BLACK
6
CONTINUOUS
10
129.904
20
-156.991
11
129.999
21
-157.372
0
LINE
8
BLACK
6
CONTINUOUS
10
129.999
20
-157.372
11
129.999
21
-157.848
0
LINE
8
BLACK
6
CONTINUOUS
10
129.999
20
-157.848
11
129.904
21
-158.229
0
LINE
8
BLACK
6
CONTINUOUS
10
129.904
20
-158.229
11
129.808
21
-158.419
0
LINE
8
BLACK
6
CONTINUOUS
10
129.808
20
-158.419
11
129.713
21
-158.515
0
LINE
8
BLACK
6
CONTINUOUS
10
129.713
20
-158.515
11
129.523
21
-158.61
0
LINE
8
BLACK
6
CONTINUOUS
10
129.523
20
-158.61
11
129.332
21
-158.61
0
LINE
8
BLACK
6
CONTINUOUS
10
129.332
20
-158.61
11
129.142
21
-158.515
0
LINE
8
BLACK
6
CONTINUOUS
10
129.142
20
-158.515
11
129.046
21
-158.419
0
LINE
8
BLACK
6
CONTINUOUS
10
129.046
20
-158.419
11
128.951
21
-158.229
0
LINE
8
BLACK
6
CONTINUOUS
10
128.951
20
-158.229
11
128.856
21
-157.848
0
LINE
8
BLACK
6
CONTINUOUS
10
128.856
20
-157.848
11
128.856
21
-157.372
0
LINE
8
BLACK
6
CONTINUOUS
10
128.856
20
-157.372
11
128.951
21
-156.991
0
LINE
8
BLACK
6
CONTINUOUS
10
128.951
20
-156.991
11
129.046
21
-156.8
0
LINE
8
BLACK
6
CONTINUOUS
10
129.046
20
-156.8
11
129.142
21
-156.705
0
LINE
8
BLACK
6
CONTINUOUS
10
129.142
20
-156.705
11
129.332
21
-156.61
0
LINE
8
BLACK
6
CONTINUOUS
10
130.856
20
-158.419
11
130.951
21
-158.515
0
LINE
8
BLACK
6
CONTINUOUS
10
130.951
20
-158.515
11
130.856
21
-158.61
0
LINE
8
BLACK
6
CONTINUOUS
10
130.856
20
-158.61
11
130.761
21
-158.515
0
LINE
8
BLACK
6
CONTINUOUS
10
130.761
20
-158.515
11
130.856
21
-158.419
0
LINE
8
BLACK
6
CONTINUOUS
10
130.856
20
-158.419
11
130.856
21
-158.61
0
LINE
8
BLACK
6
CONTINUOUS
10
132.094
20
-157.467
11
131.904
21
-157.372
0
LINE
8
BLACK
6
CONTINUOUS
10
131.904
20
-157.372
11
131.808
21
-157.276
0
LINE
8
BLACK
6
CONTINUOUS
10
131.808
20
-157.276
11
131.713
21
-157.086
0
LINE
8
BLACK
6
CONTINUOUS
10
131.713
20
-157.086
11
131.713
21
-156.991
0
LINE
8
BLACK
6
CONTINUOUS
10
131.713
20
-156.991
11
131.808
21
-156.8
0
LINE
8
BLACK
6
CONTINUOUS
10
131.808
20
-156.8
11
131.904
21
-156.705
0
LINE
8
BLACK
6
CONTINUOUS
10
131.904
20
-156.705
11
132.094
21
-156.61
0
LINE
8
BLACK
6
CONTINUOUS
10
132.094
20
-156.61
11
132.475
21
-156.61
0
LINE
8
BLACK
6
CONTINUOUS
10
132.475
20
-156.61
11
132.665
21
-156.705
0
LINE
8
BLACK
6
CONTINUOUS
10
132.665
20
-156.705
11
132.761
21
-156.8
0
LINE
8
BLACK
6
CONTINUOUS
10
132.761
20
-156.8
11
132.856
21
-156.991
0
LINE
8
BLACK
6
CONTINUOUS
10
132.856
20
-156.991
11
132.856
21
-157.086
0
LINE
8
BLACK
6
CONTINUOUS
10
132.856
20
-157.086
11
132.761
21
-157.276
0
LINE
8
BLACK
6
CONTINUOUS
10
132.761
20
-157.276
11
132.665
21
-157.372
0
LINE
8
BLACK
6
CONTINUOUS
10
132.665
20
-157.372
11
132.475
21
-157.467
0
LINE
8
BLACK
6
CONTINUOUS
10
132.475
20
-157.467
11
132.094
21
-157.467
0
LINE
8
BLACK
6
CONTINUOUS
10
132.094
20
-157.467
11
131.904
21
-157.562
0
LINE
8
BLACK
6
CONTINUOUS
10
131.904
20
-157.562
11
131.808
21
-157.657
0
LINE
8
BLACK
6
CONTINUOUS
10
131.808
20
-157.657
11
131.713
21
-157.848
0
LINE
8
BLACK
6
CONTINUOUS
10
131.713
20
-157.848
11
131.713
21
-158.229
0
LINE
8
BLACK
6
CONTINUOUS
10
131.713
20
-158.229
11
131.808
21
-158.419
0
LINE
8
BLACK
6
CONTINUOUS
10
131.808
20
-158.419
11
131.904
21
-158.515
0
LINE
8
BLACK
6
CONTINUOUS
10
131.904
20
-158.515
11
132.094
21
-158.61
0
LINE
8
BLACK
6
CONTINUOUS
10
132.094
20
-158.61
11
132.475
21
-158.61
0
LINE
8
BLACK
6
CONTINUOUS
10
132.475
20
-158.61
11
132.665
21
-158.515
0
LINE
8
BLACK
6
CONTINUOUS
10
132.665
20
-158.515
11
132.761
21
-158.419
0
LINE
8
BLACK
6
CONTINUOUS
10
132.761
20
-158.419
11
132.856
21
-158.229
0
LINE
8
BLACK
6
CONTINUOUS
10
132.856
20
-158.229
11
132.856
21
-157.848
0
LINE
8
BLACK
6
CONTINUOUS
10
132.856
20
-157.848
11
132.761
21
-157.657
0
LINE
8
BLACK
6
CONTINUOUS
10
132.761
20
-157.657
11
132.665
21
-157.562
0
LINE
8
BLACK
6
CONTINUOUS
10
132.665
20
-157.562
11
132.475
21
-157.467
0
LINE
8
BLACK
6
CONTINUOUS
10
134.094
20
-156.61
11
134.285
21
-156.61
0
LINE
8
BLACK
6
CONTINUOUS
10
134.285
20
-156.61
11
134.475
21
-156.705
0
LINE
8
BLACK
6
CONTINUOUS
10
134.475
20
-156.705
11
134.57
21
-156.8
0
LINE
8
BLACK
6
CONTINUOUS
10
134.57
20
-156.8
11
134.665
21
-156.991
0
LINE
8
BLACK
6
CONTINUOUS
10
134.665
20
-156.991
11
134.761
21
-157.372
0
LINE
8
BLACK
6
CONTINUOUS
10
134.761
20
-157.372
11
134.761
21
-157.848
0
LINE
8
BLACK
6
CONTINUOUS
10
134.761
20
-157.848
11
134.665
21
-158.229
0
LINE
8
BLACK
6
CONTINUOUS
10
134.665
20
-158.229
11
134.57
21
-158.419
0
LINE
8
BLACK
6
CONTINUOUS
10
134.57
20
-158.419
11
134.475
21
-158.515
0
LINE
8
BLACK
6
CONTINUOUS
10
134.475
20
-158.515
11
134.285
21
-158.61
0
LINE
8
BLACK
6
CONTINUOUS
10
134.285
20
-158.61
11
134.094
21
-158.61
0
LINE
8
BLACK
6
CONTINUOUS
10
134.094
20
-158.61
11
133.904
21
-158.515
0
LINE
8
BLACK
6
CONTINUOUS
10
133.904
20
-158.515
11
133.808
21
-158.419
0
LINE
8
BLACK
6
CONTINUOUS
10
133.808
20
-158.419
11
133.713
21
-158.229
0
LINE
8
BLACK
6
CONTINUOUS
10
133.713
20
-158.229
11
133.618
21
-157.848
0
LINE
8
BLACK
6
CONTINUOUS
10
133.618
20
-157.848
11
133.618
21
-157.372
0
LINE
8
BLACK
6
CONTINUOUS
10
133.618
20
-157.372
11
133.713
21
-156.991
0
LINE
8
BLACK
6
CONTINUOUS
10
133.713
20
-156.991
11
133.808
21
-156.8
0
LINE
8
BLACK
6
CONTINUOUS
10
133.808
20
-156.8
11
133.904
21
-156.705
0
LINE
8
BLACK
6
CONTINUOUS
10
133.904
20
-156.705
11
134.094
21
-156.61
0
LINE
8
BLACK
6
CONTINUOUS
10
135.999
20
-156.61
11
136.189
21
-156.61
0
LINE
8
BLACK
6
CONTINUOUS
10
136.189
20
-156.61
11
136.38
21
-156.705
0
LINE
8
BLACK
6
CONTINUOUS
10
136.38
20
-156.705
11
136.475
21
-156.8
0
LINE
8
BLACK
6
CONTINUOUS
10
136.475
20
-156.8
11
136.57
21
-156.991
0
LINE
8
BLACK
6
CONTINUOUS
10
136.57
20
-156.991
11
136.665
21
-157.372
0
LINE
8
BLACK
6
CONTINUOUS
10
136.665
20
-157.372
11
136.665
21
-157.848
0
LINE
8
BLACK
6
CONTINUOUS
10
136.665
20
-157.848
11
136.57
21
-158.229
0
LINE
8
BLACK
6
CONTINUOUS
10
136.57
20
-158.229
11
136.475
21
-158.419
0
LINE
8
BLACK
6
CONTINUOUS
10
136.475
20
-158.419
11
136.38
21
-158.515
0
LINE
8
BLACK
6
CONTINUOUS
10
136.38
20
-158.515
11
136.189
21
-158.61
0
LINE
8
BLACK
6
CONTINUOUS
10
136.189
20
-158.61
11
135.999
21
-158.61
0
LINE
8
BLACK
6
CONTINUOUS
10
135.999
20
-158.61
11
135.808
21
-158.515
0
LINE
8
BLACK
6
CONTINUOUS
10
135.808
20
-158.515
11
135.713
21
-158.419
0
LINE
8
BLACK
6
CONTINUOUS
10
135.713
20
-158.419
11
135.618
21
-158.229
0
LINE
8
BLACK
6
CONTINUOUS
10
135.618
20
-158.229
11
135.523
21
-157.848
0
LINE
8
BLACK
6
CONTINUOUS
10
135.523
20
-157.848
11
135.523
21
-157.372
0
LINE
8
BLACK
6
CONTINUOUS
10
135.523
20
-157.372
11
135.618
21
-156.991
0
LINE
8
BLACK
6
CONTINUOUS
10
135.618
20
-156.991
11
135.713
21
-156.8
0
LINE
8
BLACK
6
CONTINUOUS
10
135.713
20
-156.8
11
135.808
21
-156.705
0
LINE
8
BLACK
6
CONTINUOUS
10
135.808
20
-156.705
11
135.999
21
-156.61
0
LINE
8
BLACK
6
CONTINUOUS
10
137.523
20
-158.61
11
137.523
21
-157.276
0
LINE
8
BLACK
6
CONTINUOUS
10
137.523
20
-157.467
11
137.618
21
-157.372
0
LINE
8
BLACK
6
CONTINUOUS
10
137.618
20
-157.372
11
137.808
21
-157.276
0
LINE
8
BLACK
6
CONTINUOUS
10
137.808
20
-157.276
11
138.094
21
-157.276
0
LINE
8
BLACK
6
CONTINUOUS
10
138.094
20
-157.276
11
138.285
21
-157.372
0
LINE
8
BLACK
6
CONTINUOUS
10
138.285
20
-157.372
11
138.38
21
-157.562
0
LINE
8
BLACK
6
CONTINUOUS
10
138.38
20
-157.562
11
138.38
21
-158.61
0
LINE
8
BLACK
6
CONTINUOUS
10
138.38
20
-157.562
11
138.475
21
-157.372
0
LINE
8
BLACK
6
CONTINUOUS
10
138.475
20
-157.372
11
138.665
21
-157.276
0
LINE
8
BLACK
6
CONTINUOUS
10
138.665
20
-157.276
11
138.951
21
-157.276
0
LINE
8
BLACK
6
CONTINUOUS
10
138.951
20
-157.276
11
139.142
21
-157.372
0
LINE
8
BLACK
6
CONTINUOUS
10
139.142
20
-157.372
11
139.237
21
-157.562
0
LINE
8
BLACK
6
CONTINUOUS
10
139.237
20
-157.562
11
139.237
21
-158.61
0
LINE
8
BLACK
6
CONTINUOUS
10
140.189
20
-158.61
11
140.189
21
-157.276
0
LINE
8
BLACK
6
CONTINUOUS
10
140.189
20
-157.467
11
140.285
21
-157.372
0
LINE
8
BLACK
6
CONTINUOUS
10
140.285
20
-157.372
11
140.475
21
-157.276
0
LINE
8
BLACK
6
CONTINUOUS
10
140.475
20
-157.276
11
140.761
21
-157.276
0
LINE
8
BLACK
6
CONTINUOUS
10
140.761
20
-157.276
11
140.951
21
-157.372
0
LINE
8
BLACK
6
CONTINUOUS
10
140.951
20
-157.372
11
141.046
21
-157.562
0
LINE
8
BLACK
6
CONTINUOUS
10
141.046
20
-157.562
11
141.046
21
-158.61
0
LINE
8
BLACK
6
CONTINUOUS
10
141.046
20
-157.562
11
141.142
21
-157.372
0
LINE
8
BLACK
6
CONTINUOUS
10
141.142
20
-157.372
11
141.332
21
-157.276
0
LINE
8
BLACK
6
CONTINUOUS
10
141.332
20
-157.276
11
141.618
21
-157.276
0
LINE
8
BLACK
6
CONTINUOUS
10
141.618
20
-157.276
11
141.808
21
-157.372
0
LINE
8
BLACK
6
CONTINUOUS
10
141.808
20
-157.372
11
141.904
21
-157.562
0
LINE
8
BLACK
6
CONTINUOUS
10
141.904
20
-157.562
11
141.904
21
-158.61
0
LINE
8
BLACK
6
CONTINUOUS
10
145.485
20
-156.515
11
143.77
21
-159.086
0
LINE
8
BLACK
6
CONTINUOUS
10
147.732
20
-156.61
11
147.923
21
-156.61
0
LINE
8
BLACK
6
CONTINUOUS
10
147.923
20
-156.61
11
148.113
21
-156.705
0
LINE
8
BLACK
6
CONTINUOUS
10
148.113
20
-156.705
11
148.208
21
-156.8
0
LINE
8
BLACK
6
CONTINUOUS
10
148.208
20
-156.8
11
148.304
21
-156.991
0
LINE
8
BLACK
6
CONTINUOUS
10
148.304
20
-156.991
11
148.399
21
-157.372
0
LINE
8
BLACK
6
CONTINUOUS
10
148.399
20
-157.372
11
148.399
21
-157.848
0
LINE
8
BLACK
6
CONTINUOUS
10
148.399
20
-157.848
11
148.304
21
-158.229
0
LINE
8
BLACK
6
CONTINUOUS
10
148.304
20
-158.229
11
148.208
21
-158.419
0
LINE
8
BLACK
6
CONTINUOUS
10
148.208
20
-158.419
11
148.113
21
-158.515
0
LINE
8
BLACK
6
CONTINUOUS
10
148.113
20
-158.515
11
147.923
21
-158.61
0
LINE
8
BLACK
6
CONTINUOUS
10
147.923
20
-158.61
11
147.732
21
-158.61
0
LINE
8
BLACK
6
CONTINUOUS
10
147.732
20
-158.61
11
147.542
21
-158.515
0
LINE
8
BLACK
6
CONTINUOUS
10
147.542
20
-158.515
11
147.446
21
-158.419
0
LINE
8
BLACK
6
CONTINUOUS
10
147.446
20
-158.419
11
147.351
21
-158.229
0
LINE
8
BLACK
6
CONTINUOUS
10
147.351
20
-158.229
11
147.256
21
-157.848
0
LINE
8
BLACK
6
CONTINUOUS
10
147.256
20
-157.848
11
147.256
21
-157.372
0
LINE
8
BLACK
6
CONTINUOUS
10
147.256
20
-157.372
11
147.351
21
-156.991
0
LINE
8
BLACK
6
CONTINUOUS
10
147.351
20
-156.991
11
147.446
21
-156.8
0
LINE
8
BLACK
6
CONTINUOUS
10
147.446
20
-156.8
11
147.542
21
-156.705
0
LINE
8
BLACK
6
CONTINUOUS
10
147.542
20
-156.705
11
147.732
21
-156.61
0
LINE
8
BLACK
6
CONTINUOUS
10
149.256
20
-158.419
11
149.351
21
-158.515
0
LINE
8
BLACK
6
CONTINUOUS
10
149.351
20
-158.515
11
149.256
21
-158.61
0
LINE
8
BLACK
6
CONTINUOUS
10
149.256
20
-158.61
11
149.161
21
-158.515
0
LINE
8
BLACK
6
CONTINUOUS
10
149.161
20
-158.515
11
149.256
21
-158.419
0
LINE
8
BLACK
6
CONTINUOUS
10
149.256
20
-158.419
11
149.256
21
-158.61
0
LINE
8
BLACK
6
CONTINUOUS
10
150.589
20
-156.61
11
150.78
21
-156.61
0
LINE
8
BLACK
6
CONTINUOUS
10
150.78
20
-156.61
11
150.97
21
-156.705
0
LINE
8
BLACK
6
CONTINUOUS
10
150.97
20
-156.705
11
151.065
21
-156.8
0
LINE
8
BLACK
6
CONTINUOUS
10
151.065
20
-156.8
11
151.161
21
-156.991
0
LINE
8
BLACK
6
CONTINUOUS
10
151.161
20
-156.991
11
151.256
21
-157.372
0
LINE
8
BLACK
6
CONTINUOUS
10
151.256
20
-157.372
11
151.256
21
-157.848
0
LINE
8
BLACK
6
CONTINUOUS
10
151.256
20
-157.848
11
151.161
21
-158.229
0
LINE
8
BLACK
6
CONTINUOUS
10
151.161
20
-158.229
11
151.065
21
-158.419
0
LINE
8
BLACK
6
CONTINUOUS
10
151.065
20
-158.419
11
150.97
21
-158.515
0
LINE
8
BLACK
6
CONTINUOUS
10
150.97
20
-158.515
11
150.78
21
-158.61
0
LINE
8
BLACK
6
CONTINUOUS
10
150.78
20
-158.61
11
150.589
21
-158.61
0
LINE
8
BLACK
6
CONTINUOUS
10
150.589
20
-158.61
11
150.399
21
-158.515
0
LINE
8
BLACK
6
CONTINUOUS
10
150.399
20
-158.515
11
150.304
21
-158.419
0
LINE
8
BLACK
6
CONTINUOUS
10
150.304
20
-158.419
11
150.208
21
-158.229
0
LINE
8
BLACK
6
CONTINUOUS
10
150.208
20
-158.229
11
150.113
21
-157.848
0
LINE
8
BLACK
6
CONTINUOUS
10
150.113
20
-157.848
11
150.113
21
-157.372
0
LINE
8
BLACK
6
CONTINUOUS
10
150.113
20
-157.372
11
150.208
21
-156.991
0
LINE
8
BLACK
6
CONTINUOUS
10
150.208
20
-156.991
11
150.304
21
-156.8
0
LINE
8
BLACK
6
CONTINUOUS
10
150.304
20
-156.8
11
150.399
21
-156.705
0
LINE
8
BLACK
6
CONTINUOUS
10
150.399
20
-156.705
11
150.589
21
-156.61
0
LINE
8
BLACK
6
CONTINUOUS
10
151.923
20
-156.61
11
153.161
21
-156.61
0
LINE
8
BLACK
6
CONTINUOUS
10
153.161
20
-156.61
11
152.494
21
-157.372
0
LINE
8
BLACK
6
CONTINUOUS
10
152.494
20
-157.372
11
152.78
21
-157.372
0
LINE
8
BLACK
6
CONTINUOUS
10
152.78
20
-157.372
11
152.97
21
-157.467
0
LINE
8
BLACK
6
CONTINUOUS
10
152.97
20
-157.467
11
153.065
21
-157.562
0
LINE
8
BLACK
6
CONTINUOUS
10
153.065
20
-157.562
11
153.161
21
-157.753
0
LINE
8
BLACK
6
CONTINUOUS
10
153.161
20
-157.753
11
153.161
21
-158.229
0
LINE
8
BLACK
6
CONTINUOUS
10
153.161
20
-158.229
11
153.065
21
-158.419
0
LINE
8
BLACK
6
CONTINUOUS
10
153.065
20
-158.419
11
152.97
21
-158.515
0
LINE
8
BLACK
6
CONTINUOUS
10
152.97
20
-158.515
11
152.78
21
-158.61
0
LINE
8
BLACK
6
CONTINUOUS
10
152.78
20
-158.61
11
152.208
21
-158.61
0
LINE
8
BLACK
6
CONTINUOUS
10
152.208
20
-158.61
11
152.018
21
-158.515
0
LINE
8
BLACK
6
CONTINUOUS
10
152.018
20
-158.515
11
151.923
21
-158.419
0
LINE
8
BLACK
6
CONTINUOUS
10
155.065
20
-158.61
11
153.923
21
-158.61
0
LINE
8
BLACK
6
CONTINUOUS
10
154.494
20
-158.61
11
154.494
21
-156.61
0
LINE
8
BLACK
6
CONTINUOUS
10
154.494
20
-156.61
11
154.304
21
-156.895
0
LINE
8
BLACK
6
CONTINUOUS
10
154.304
20
-156.895
11
154.113
21
-157.086
0
LINE
8
BLACK
6
CONTINUOUS
10
154.113
20
-157.086
11
153.923
21
-157.181
0
LINE
8
BLACK
6
CONTINUOUS
10
156.875
20
-156.61
11
155.923
21
-156.61
0
LINE
8
BLACK
6
CONTINUOUS
10
155.923
20
-156.61
11
155.827
21
-157.562
0
LINE
8
BLACK
6
CONTINUOUS
10
155.827
20
-157.562
11
155.923
21
-157.467
0
LINE
8
BLACK
6
CONTINUOUS
10
155.923
20
-157.467
11
156.113
21
-157.372
0
LINE
8
BLACK
6
CONTINUOUS
10
156.113
20
-157.372
11
156.589
21
-157.372
0
LINE
8
BLACK
6
CONTINUOUS
10
156.589
20
-157.372
11
156.78
21
-157.467
0
LINE
8
BLACK
6
CONTINUOUS
10
156.78
20
-157.467
11
156.875
21
-157.562
0
LINE
8
BLACK
6
CONTINUOUS
10
156.875
20
-157.562
11
156.97
21
-157.753
0
LINE
8
BLACK
6
CONTINUOUS
10
156.97
20
-157.753
11
156.97
21
-158.229
0
LINE
8
BLACK
6
CONTINUOUS
10
156.97
20
-158.229
11
156.875
21
-158.419
0
LINE
8
BLACK
6
CONTINUOUS
10
156.875
20
-158.419
11
156.78
21
-158.515
0
LINE
8
BLACK
6
CONTINUOUS
10
156.78
20
-158.515
11
156.589
21
-158.61
0
LINE
8
BLACK
6
CONTINUOUS
10
156.589
20
-158.61
11
156.113
21
-158.61
0
LINE
8
BLACK
6
CONTINUOUS
10
156.113
20
-158.61
11
155.923
21
-158.515
0
LINE
8
BLACK
6
CONTINUOUS
10
155.923
20
-158.515
11
155.827
21
-158.419
0
LINE
8
BLACK
6
CONTINUOUS
10
157.732
20
-156.61
11
157.732
21
-156.991
0
LINE
8
BLACK
6
CONTINUOUS
10
158.494
20
-156.61
11
158.494
21
-156.991
0
LINE
8
BLACK
6
CONTINUOUS
10
161.123
20
-159.372
11
161.027
21
-159.276
0
LINE
8
BLACK
6
CONTINUOUS
10
161.027
20
-159.276
11
160.837
21
-158.991
0
LINE
8
BLACK
6
CONTINUOUS
10
160.837
20
-158.991
11
160.742
21
-158.8
0
LINE
8
BLACK
6
CONTINUOUS
10
160.742
20
-158.8
11
160.646
21
-158.515
0
LINE
8
BLACK
6
CONTINUOUS
10
160.646
20
-158.515
11
160.551
21
-158.038
0
LINE
8
BLACK
6
CONTINUOUS
10
160.551
20
-158.038
11
160.551
21
-157.657
0
LINE
8
BLACK
6
CONTINUOUS
10
160.551
20
-157.657
11
160.646
21
-157.181
0
LINE
8
BLACK
6
CONTINUOUS
10
160.646
20
-157.181
11
160.742
21
-156.895
0
LINE
8
BLACK
6
CONTINUOUS
10
160.742
20
-156.895
11
160.837
21
-156.705
0
LINE
8
BLACK
6
CONTINUOUS
10
160.837
20
-156.705
11
161.027
21
-156.419
0
LINE
8
BLACK
6
CONTINUOUS
10
161.027
20
-156.419
11
161.123
21
-156.324
0
LINE
8
BLACK
6
CONTINUOUS
10
161.789
20
-156.8
11
161.885
21
-156.705
0
LINE
8
BLACK
6
CONTINUOUS
10
161.885
20
-156.705
11
162.075
21
-156.61
0
LINE
8
BLACK
6
CONTINUOUS
10
162.075
20
-156.61
11
162.551
21
-156.61
0
LINE
8
BLACK
6
CONTINUOUS
10
162.551
20
-156.61
11
162.742
21
-156.705
0
LINE
8
BLACK
6
CONTINUOUS
10
162.742
20
-156.705
11
162.837
21
-156.8
0
LINE
8
BLACK
6
CONTINUOUS
10
162.837
20
-156.8
11
162.932
21
-156.991
0
LINE
8
BLACK
6
CONTINUOUS
10
162.932
20
-156.991
11
162.932
21
-157.181
0
LINE
8
BLACK
6
CONTINUOUS
10
162.932
20
-157.181
11
162.837
21
-157.467
0
LINE
8
BLACK
6
CONTINUOUS
10
162.837
20
-157.467
11
161.694
21
-158.61
0
LINE
8
BLACK
6
CONTINUOUS
10
161.694
20
-158.61
11
162.932
21
-158.61
0
LINE
8
BLACK
6
CONTINUOUS
10
164.075
20
-157.467
11
163.885
21
-157.372
0
LINE
8
BLACK
6
CONTINUOUS
10
163.885
20
-157.372
11
163.789
21
-157.276
0
LINE
8
BLACK
6
CONTINUOUS
10
163.789
20
-157.276
11
163.694
21
-157.086
0
LINE
8
BLACK
6
CONTINUOUS
10
163.694
20
-157.086
11
163.694
21
-156.991
0
LINE
8
BLACK
6
CONTINUOUS
10
163.694
20
-156.991
11
163.789
21
-156.8
0
LINE
8
BLACK
6
CONTINUOUS
10
163.789
20
-156.8
11
163.885
21
-156.705
0
LINE
8
BLACK
6
CONTINUOUS
10
163.885
20
-156.705
11
164.075
21
-156.61
0
LINE
8
BLACK
6
CONTINUOUS
10
164.075
20
-156.61
11
164.456
21
-156.61
0
LINE
8
BLACK
6
CONTINUOUS
10
164.456
20
-156.61
11
164.646
21
-156.705
0
LINE
8
BLACK
6
CONTINUOUS
10
164.646
20
-156.705
11
164.742
21
-156.8
0
LINE
8
BLACK
6
CONTINUOUS
10
164.742
20
-156.8
11
164.837
21
-156.991
0
LINE
8
BLACK
6
CONTINUOUS
10
164.837
20
-156.991
11
164.837
21
-157.086
0
LINE
8
BLACK
6
CONTINUOUS
10
164.837
20
-157.086
11
164.742
21
-157.276
0
LINE
8
BLACK
6
CONTINUOUS
10
164.742
20
-157.276
11
164.646
21
-157.372
0
LINE
8
BLACK
6
CONTINUOUS
10
164.646
20
-157.372
11
164.456
21
-157.467
0
LINE
8
BLACK
6
CONTINUOUS
10
164.456
20
-157.467
11
164.075
21
-157.467
0
LINE
8
BLACK
6
CONTINUOUS
10
164.075
20
-157.467
11
163.885
21
-157.562
0
LINE
8
BLACK
6
CONTINUOUS
10
163.885
20
-157.562
11
163.789
21
-157.657
0
LINE
8
BLACK
6
CONTINUOUS
10
163.789
20
-157.657
11
163.694
21
-157.848
0
LINE
8
BLACK
6
CONTINUOUS
10
163.694
20
-157.848
11
163.694
21
-158.229
0
LINE
8
BLACK
6
CONTINUOUS
10
163.694
20
-158.229
11
163.789
21
-158.419
0
LINE
8
BLACK
6
CONTINUOUS
10
163.789
20
-158.419
11
163.885
21
-158.515
0
LINE
8
BLACK
6
CONTINUOUS
10
163.885
20
-158.515
11
164.075
21
-158.61
0
LINE
8
BLACK
6
CONTINUOUS
10
164.075
20
-158.61
11
164.456
21
-158.61
0
LINE
8
BLACK
6
CONTINUOUS
10
164.456
20
-158.61
11
164.646
21
-158.515
0
LINE
8
BLACK
6
CONTINUOUS
10
164.646
20
-158.515
11
164.742
21
-158.419
0
LINE
8
BLACK
6
CONTINUOUS
10
164.742
20
-158.419
11
164.837
21
-158.229
0
LINE
8
BLACK
6
CONTINUOUS
10
164.837
20
-158.229
11
164.837
21
-157.848
0
LINE
8
BLACK
6
CONTINUOUS
10
164.837
20
-157.848
11
164.742
21
-157.657
0
LINE
8
BLACK
6
CONTINUOUS
10
164.742
20
-157.657
11
164.646
21
-157.562
0
LINE
8
BLACK
6
CONTINUOUS
10
164.646
20
-157.562
11
164.456
21
-157.467
0
LINE
8
BLACK
6
CONTINUOUS
10
166.894
20
-158.61
11
166.894
21
-156.61
0
LINE
8
BLACK
6
CONTINUOUS
10
167.751
20
-158.61
11
167.751
21
-157.562
0
LINE
8
BLACK
6
CONTINUOUS
10
167.751
20
-157.562
11
167.656
21
-157.372
0
LINE
8
BLACK
6
CONTINUOUS
10
167.656
20
-157.372
11
167.465
21
-157.276
0
LINE
8
BLACK
6
CONTINUOUS
10
167.465
20
-157.276
11
167.18
21
-157.276
0
LINE
8
BLACK
6
CONTINUOUS
10
167.18
20
-157.276
11
166.989
21
-157.372
0
LINE
8
BLACK
6
CONTINUOUS
10
166.989
20
-157.372
11
166.894
21
-157.467
0
LINE
8
BLACK
6
CONTINUOUS
10
168.989
20
-158.61
11
168.799
21
-158.515
0
LINE
8
BLACK
6
CONTINUOUS
10
168.799
20
-158.515
11
168.704
21
-158.419
0
LINE
8
BLACK
6
CONTINUOUS
10
168.704
20
-158.419
11
168.608
21
-158.229
0
LINE
8
BLACK
6
CONTINUOUS
10
168.608
20
-158.229
11
168.608
21
-157.657
0
LINE
8
BLACK
6
CONTINUOUS
10
168.608
20
-157.657
11
168.704
21
-157.467
0
LINE
8
BLACK
6
CONTINUOUS
10
168.704
20
-157.467
11
168.799
21
-157.372
0
LINE
8
BLACK
6
CONTINUOUS
10
168.799
20
-157.372
11
168.989
21
-157.276
0
LINE
8
BLACK
6
CONTINUOUS
10
168.989
20
-157.276
11
169.275
21
-157.276
0
LINE
8
BLACK
6
CONTINUOUS
10
169.275
20
-157.276
11
169.465
21
-157.372
0
LINE
8
BLACK
6
CONTINUOUS
10
169.465
20
-157.372
11
169.561
21
-157.467
0
LINE
8
BLACK
6
CONTINUOUS
10
169.561
20
-157.467
11
169.656
21
-157.657
0
LINE
8
BLACK
6
CONTINUOUS
10
169.656
20
-157.657
11
169.656
21
-158.229
0
LINE
8
BLACK
6
CONTINUOUS
10
169.656
20
-158.229
11
169.561
21
-158.419
0
LINE
8
BLACK
6
CONTINUOUS
10
169.561
20
-158.419
11
169.465
21
-158.515
0
LINE
8
BLACK
6
CONTINUOUS
10
169.465
20
-158.515
11
169.275
21
-158.61
0
LINE
8
BLACK
6
CONTINUOUS
10
169.275
20
-158.61
11
168.989
21
-158.61
0
LINE
8
BLACK
6
CONTINUOUS
10
170.799
20
-158.61
11
170.608
21
-158.515
0
LINE
8
BLACK
6
CONTINUOUS
10
170.608
20
-158.515
11
170.513
21
-158.324
0
LINE
8
BLACK
6
CONTINUOUS
10
170.513
20
-158.324
11
170.513
21
-156.61
0
LINE
8
BLACK
6
CONTINUOUS
10
172.323
20
-158.515
11
172.132
21
-158.61
0
LINE
8
BLACK
6
CONTINUOUS
10
172.132
20
-158.61
11
171.751
21
-158.61
0
LINE
8
BLACK
6
CONTINUOUS
10
171.751
20
-158.61
11
171.561
21
-158.515
0
LINE
8
BLACK
6
CONTINUOUS
10
171.561
20
-158.515
11
171.465
21
-158.324
0
LINE
8
BLACK
6
CONTINUOUS
10
171.465
20
-158.324
11
171.465
21
-157.562
0
LINE
8
BLACK
6
CONTINUOUS
10
171.465
20
-157.562
11
171.561
21
-157.372
0
LINE
8
BLACK
6
CONTINUOUS
10
171.561
20
-157.372
11
171.751
21
-157.276
0
LINE
8
BLACK
6
CONTINUOUS
10
171.751
20
-157.276
11
172.132
21
-157.276
0
LINE
8
BLACK
6
CONTINUOUS
10
172.132
20
-157.276
11
172.323
21
-157.372
0
LINE
8
BLACK
6
CONTINUOUS
10
172.323
20
-157.372
11
172.418
21
-157.562
0
LINE
8
BLACK
6
CONTINUOUS
10
172.418
20
-157.562
11
172.418
21
-157.753
0
LINE
8
BLACK
6
CONTINUOUS
10
172.418
20
-157.753
11
171.465
21
-157.943
0
LINE
8
BLACK
6
CONTINUOUS
10
173.18
20
-158.515
11
173.37
21
-158.61
0
LINE
8
BLACK
6
CONTINUOUS
10
173.37
20
-158.61
11
173.751
21
-158.61
0
LINE
8
BLACK
6
CONTINUOUS
10
173.751
20
-158.61
11
173.942
21
-158.515
0
LINE
8
BLACK
6
CONTINUOUS
10
173.942
20
-158.515
11
174.037
21
-158.324
0
LINE
8
BLACK
6
CONTINUOUS
10
174.037
20
-158.324
11
174.037
21
-158.229
0
LINE
8
BLACK
6
CONTINUOUS
10
174.037
20
-158.229
11
173.942
21
-158.038
0
LINE
8
BLACK
6
CONTINUOUS
10
173.942
20
-158.038
11
173.751
21
-157.943
0
LINE
8
BLACK
6
CONTINUOUS
10
173.751
20
-157.943
11
173.465
21
-157.943
0
LINE
8
BLACK
6
CONTINUOUS
10
173.465
20
-157.943
11
173.275
21
-157.848
0
LINE
8
BLACK
6
CONTINUOUS
10
173.275
20
-157.848
11
173.18
21
-157.657
0
LINE
8
BLACK
6
CONTINUOUS
10
173.18
20
-157.657
11
173.18
21
-157.562
0
LINE
8
BLACK
6
CONTINUOUS
10
173.18
20
-157.562
11
173.275
21
-157.372
0
LINE
8
BLACK
6
CONTINUOUS
10
173.275
20
-157.372
11
173.465
21
-157.276
0
LINE
8
BLACK
6
CONTINUOUS
10
173.465
20
-157.276
11
173.751
21
-157.276
0
LINE
8
BLACK
6
CONTINUOUS
10
173.751
20
-157.276
11
173.942
21
-157.372
0
LINE
8
BLACK
6
CONTINUOUS
10
174.704
20
-159.372
11
174.799
21
-159.276
0
LINE
8
BLACK
6
CONTINUOUS
10
174.799
20
-159.276
11
174.989
21
-158.991
0
LINE
8
BLACK
6
CONTINUOUS
10
174.989
20
-158.991
11
175.085
21
-158.8
0
LINE
8
BLACK
6
CONTINUOUS
10
175.085
20
-158.8
11
175.18
21
-158.515
0
LINE
8
BLACK
6
CONTINUOUS
10
175.18
20
-158.515
11
175.275
21
-158.038
0
LINE
8
BLACK
6
CONTINUOUS
10
175.275
20
-158.038
11
175.275
21
-157.657
0
LINE
8
BLACK
6
CONTINUOUS
10
175.275
20
-157.657
11
175.18
21
-157.181
0
LINE
8
BLACK
6
CONTINUOUS
10
175.18
20
-157.181
11
175.085
21
-156.895
0
LINE
8
BLACK
6
CONTINUOUS
10
175.085
20
-156.895
11
174.989
21
-156.705
0
LINE
8
BLACK
6
CONTINUOUS
10
174.989
20
-156.705
11
174.799
21
-156.419
0
LINE
8
BLACK
6
CONTINUOUS
10
174.799
20
-156.419
11
174.704
21
-156.324
0
LINE
8
BLACK
6
CONTINUOUS
10
125.975
20
-160.015
11
125.975
21
-161.015
0
LINE
8
BLACK
6
CONTINUOUS
10
125.475
20
-160.515
11
126.475
21
-160.515
0
LINE
8
BLACK
6
CONTINUOUS
10
129.999
20
-161.25
11
128.856
21
-161.25
0
LINE
8
BLACK
6
CONTINUOUS
10
129.427
20
-161.25
11
129.427
21
-159.25
0
LINE
8
BLACK
6
CONTINUOUS
10
129.427
20
-159.25
11
129.237
21
-159.535
0
LINE
8
BLACK
6
CONTINUOUS
10
129.237
20
-159.535
11
129.046
21
-159.726
0
LINE
8
BLACK
6
CONTINUOUS
10
129.046
20
-159.726
11
128.856
21
-159.821
0
LINE
8
BLACK
6
CONTINUOUS
10
130.856
20
-161.059
11
130.951
21
-161.155
0
LINE
8
BLACK
6
CONTINUOUS
10
130.951
20
-161.155
11
130.856
21
-161.25
0
LINE
8
BLACK
6
CONTINUOUS
10
130.856
20
-161.25
11
130.761
21
-161.155
0
LINE
8
BLACK
6
CONTINUOUS
10
130.761
20
-161.155
11
130.856
21
-161.059
0
LINE
8
BLACK
6
CONTINUOUS
10
130.856
20
-161.059
11
130.856
21
-161.25
0
LINE
8
BLACK
6
CONTINUOUS
10
132.189
20
-159.25
11
132.38
21
-159.25
0
LINE
8
BLACK
6
CONTINUOUS
10
132.38
20
-159.25
11
132.57
21
-159.345
0
LINE
8
BLACK
6
CONTINUOUS
10
132.57
20
-159.345
11
132.665
21
-159.44
0
LINE
8
BLACK
6
CONTINUOUS
10
132.665
20
-159.44
11
132.761
21
-159.631
0
LINE
8
BLACK
6
CONTINUOUS
10
132.761
20
-159.631
11
132.856
21
-160.012
0
LINE
8
BLACK
6
CONTINUOUS
10
132.856
20
-160.012
11
132.856
21
-160.488
0
LINE
8
BLACK
6
CONTINUOUS
10
132.856
20
-160.488
11
132.761
21
-160.869
0
LINE
8
BLACK
6
CONTINUOUS
10
132.761
20
-160.869
11
132.665
21
-161.059
0
LINE
8
BLACK
6
CONTINUOUS
10
132.665
20
-161.059
11
132.57
21
-161.155
0
LINE
8
BLACK
6
CONTINUOUS
10
132.57
20
-161.155
11
132.38
21
-161.25
0
LINE
8
BLACK
6
CONTINUOUS
10
132.38
20
-161.25
11
132.189
21
-161.25
0
LINE
8
BLACK
6
CONTINUOUS
10
132.189
20
-161.25
11
131.999
21
-161.155
0
LINE
8
BLACK
6
CONTINUOUS
10
131.999
20
-161.155
11
131.904
21
-161.059
0
LINE
8
BLACK
6
CONTINUOUS
10
131.904
20
-161.059
11
131.808
21
-160.869
0
LINE
8
BLACK
6
CONTINUOUS
10
131.808
20
-160.869
11
131.713
21
-160.488
0
LINE
8
BLACK
6
CONTINUOUS
10
131.713
20
-160.488
11
131.713
21
-160.012
0
LINE
8
BLACK
6
CONTINUOUS
10
131.713
20
-160.012
11
131.808
21
-159.631
0
LINE
8
BLACK
6
CONTINUOUS
10
131.808
20
-159.631
11
131.904
21
-159.44
0
LINE
8
BLACK
6
CONTINUOUS
10
131.904
20
-159.44
11
131.999
21
-159.345
0
LINE
8
BLACK
6
CONTINUOUS
10
131.999
20
-159.345
11
132.189
21
-159.25
0
LINE
8
BLACK
6
CONTINUOUS
10
134.094
20
-159.25
11
134.285
21
-159.25
0
LINE
8
BLACK
6
CONTINUOUS
10
134.285
20
-159.25
11
134.475
21
-159.345
0
LINE
8
BLACK
6
CONTINUOUS
10
134.475
20
-159.345
11
134.57
21
-159.44
0
LINE
8
BLACK
6
CONTINUOUS
10
134.57
20
-159.44
11
134.665
21
-159.631
0
LINE
8
BLACK
6
CONTINUOUS
10
134.665
20
-159.631
11
134.761
21
-160.012
0
LINE
8
BLACK
6
CONTINUOUS
10
134.761
20
-160.012
11
134.761
21
-160.488
0
LINE
8
BLACK
6
CONTINUOUS
10
134.761
20
-160.488
11
134.665
21
-160.869
0
LINE
8
BLACK
6
CONTINUOUS
10
134.665
20
-160.869
11
134.57
21
-161.059
0
LINE
8
BLACK
6
CONTINUOUS
10
134.57
20
-161.059
11
134.475
21
-161.155
0
LINE
8
BLACK
6
CONTINUOUS
10
134.475
20
-161.155
11
134.285
21
-161.25
0
LINE
8
BLACK
6
CONTINUOUS
10
134.285
20
-161.25
11
134.094
21
-161.25
0
LINE
8
BLACK
6
CONTINUOUS
10
134.094
20
-161.25
11
133.904
21
-161.155
0
LINE
8
BLACK
6
CONTINUOUS
10
133.904
20
-161.155
11
133.808
21
-161.059
0
LINE
8
BLACK
6
CONTINUOUS
10
133.808
20
-161.059
11
133.713
21
-160.869
0
LINE
8
BLACK
6
CONTINUOUS
10
133.713
20
-160.869
11
133.618
21
-160.488
0
LINE
8
BLACK
6
CONTINUOUS
10
133.618
20
-160.488
11
133.618
21
-160.012
0
LINE
8
BLACK
6
CONTINUOUS
10
133.618
20
-160.012
11
133.713
21
-159.631
0
LINE
8
BLACK
6
CONTINUOUS
10
133.713
20
-159.631
11
133.808
21
-159.44
0
LINE
8
BLACK
6
CONTINUOUS
10
133.808
20
-159.44
11
133.904
21
-159.345
0
LINE
8
BLACK
6
CONTINUOUS
10
133.904
20
-159.345
11
134.094
21
-159.25
0
LINE
8
BLACK
6
CONTINUOUS
10
135.999
20
-159.25
11
136.189
21
-159.25
0
LINE
8
BLACK
6
CONTINUOUS
10
136.189
20
-159.25
11
136.38
21
-159.345
0
LINE
8
BLACK
6
CONTINUOUS
10
136.38
20
-159.345
11
136.475
21
-159.44
0
LINE
8
BLACK
6
CONTINUOUS
10
136.475
20
-159.44
11
136.57
21
-159.631
0
LINE
8
BLACK
6
CONTINUOUS
10
136.57
20
-159.631
11
136.665
21
-160.012
0
LINE
8
BLACK
6
CONTINUOUS
10
136.665
20
-160.012
11
136.665
21
-160.488
0
LINE
8
BLACK
6
CONTINUOUS
10
136.665
20
-160.488
11
136.57
21
-160.869
0
LINE
8
BLACK
6
CONTINUOUS
10
136.57
20
-160.869
11
136.475
21
-161.059
0
LINE
8
BLACK
6
CONTINUOUS
10
136.475
20
-161.059
11
136.38
21
-161.155
0
LINE
8
BLACK
6
CONTINUOUS
10
136.38
20
-161.155
11
136.189
21
-161.25
0
LINE
8
BLACK
6
CONTINUOUS
10
136.189
20
-161.25
11
135.999
21
-161.25
0
LINE
8
BLACK
6
CONTINUOUS
10
135.999
20
-161.25
11
135.808
21
-161.155
0
LINE
8
BLACK
6
CONTINUOUS
10
135.808
20
-161.155
11
135.713
21
-161.059
0
LINE
8
BLACK
6
CONTINUOUS
10
135.713
20
-161.059
11
135.618
21
-160.869
0
LINE
8
BLACK
6
CONTINUOUS
10
135.618
20
-160.869
11
135.523
21
-160.488
0
LINE
8
BLACK
6
CONTINUOUS
10
135.523
20
-160.488
11
135.523
21
-160.012
0
LINE
8
BLACK
6
CONTINUOUS
10
135.523
20
-160.012
11
135.618
21
-159.631
0
LINE
8
BLACK
6
CONTINUOUS
10
135.618
20
-159.631
11
135.713
21
-159.44
0
LINE
8
BLACK
6
CONTINUOUS
10
135.713
20
-159.44
11
135.808
21
-159.345
0
LINE
8
BLACK
6
CONTINUOUS
10
135.808
20
-159.345
11
135.999
21
-159.25
0
LINE
8
BLACK
6
CONTINUOUS
10
137.523
20
-161.25
11
137.523
21
-159.916
0
LINE
8
BLACK
6
CONTINUOUS
10
137.523
20
-160.107
11
137.618
21
-160.012
0
LINE
8
BLACK
6
CONTINUOUS
10
137.618
20
-160.012
11
137.808
21
-159.916
0
LINE
8
BLACK
6
CONTINUOUS
10
137.808
20
-159.916
11
138.094
21
-159.916
0
LINE
8
BLACK
6
CONTINUOUS
10
138.094
20
-159.916
11
138.285
21
-160.012
0
LINE
8
BLACK
6
CONTINUOUS
10
138.285
20
-160.012
11
138.38
21
-160.202
0
LINE
8
BLACK
6
CONTINUOUS
10
138.38
20
-160.202
11
138.38
21
-161.25
0
LINE
8
BLACK
6
CONTINUOUS
10
138.38
20
-160.202
11
138.475
21
-160.012
0
LINE
8
BLACK
6
CONTINUOUS
10
138.475
20
-160.012
11
138.665
21
-159.916
0
LINE
8
BLACK
6
CONTINUOUS
10
138.665
20
-159.916
11
138.951
21
-159.916
0
LINE
8
BLACK
6
CONTINUOUS
10
138.951
20
-159.916
11
139.142
21
-160.012
0
LINE
8
BLACK
6
CONTINUOUS
10
139.142
20
-160.012
11
139.237
21
-160.202
0
LINE
8
BLACK
6
CONTINUOUS
10
139.237
20
-160.202
11
139.237
21
-161.25
0
LINE
8
BLACK
6
CONTINUOUS
10
140.189
20
-161.25
11
140.189
21
-159.916
0
LINE
8
BLACK
6
CONTINUOUS
10
140.189
20
-160.107
11
140.285
21
-160.012
0
LINE
8
BLACK
6
CONTINUOUS
10
140.285
20
-160.012
11
140.475
21
-159.916
0
LINE
8
BLACK
6
CONTINUOUS
10
140.475
20
-159.916
11
140.761
21
-159.916
0
LINE
8
BLACK
6
CONTINUOUS
10
140.761
20
-159.916
11
140.951
21
-160.012
0
LINE
8
BLACK
6
CONTINUOUS
10
140.951
20
-160.012
11
141.046
21
-160.202
0
LINE
8
BLACK
6
CONTINUOUS
10
141.046
20
-160.202
11
141.046
21
-161.25
0
LINE
8
BLACK
6
CONTINUOUS
10
141.046
20
-160.202
11
141.142
21
-160.012
0
LINE
8
BLACK
6
CONTINUOUS
10
141.142
20
-160.012
11
141.332
21
-159.916
0
LINE
8
BLACK
6
CONTINUOUS
10
141.332
20
-159.916
11
141.618
21
-159.916
0
LINE
8
BLACK
6
CONTINUOUS
10
141.618
20
-159.916
11
141.808
21
-160.012
0
LINE
8
BLACK
6
CONTINUOUS
10
141.808
20
-160.012
11
141.904
21
-160.202
0
LINE
8
BLACK
6
CONTINUOUS
10
141.904
20
-160.202
11
141.904
21
-161.25
0
LINE
8
BLACK
6
CONTINUOUS
10
145.485
20
-159.155
11
143.77
21
-161.726
0
LINE
8
BLACK
6
CONTINUOUS
10
147.732
20
-159.25
11
147.923
21
-159.25
0
LINE
8
BLACK
6
CONTINUOUS
10
147.923
20
-159.25
11
148.113
21
-159.345
0
LINE
8
BLACK
6
CONTINUOUS
10
148.113
20
-159.345
11
148.208
21
-159.44
0
LINE
8
BLACK
6
CONTINUOUS
10
148.208
20
-159.44
11
148.304
21
-159.631
0
LINE
8
BLACK
6
CONTINUOUS
10
148.304
20
-159.631
11
148.399
21
-160.012
0
LINE
8
BLACK
6
CONTINUOUS
10
148.399
20
-160.012
11
148.399
21
-160.488
0
LINE
8
BLACK
6
CONTINUOUS
10
148.399
20
-160.488
11
148.304
21
-160.869
0
LINE
8
BLACK
6
CONTINUOUS
10
148.304
20
-160.869
11
148.208
21
-161.059
0
LINE
8
BLACK
6
CONTINUOUS
10
148.208
20
-161.059
11
148.113
21
-161.155
0
LINE
8
BLACK
6
CONTINUOUS
10
148.113
20
-161.155
11
147.923
21
-161.25
0
LINE
8
BLACK
6
CONTINUOUS
10
147.923
20
-161.25
11
147.732
21
-161.25
0
LINE
8
BLACK
6
CONTINUOUS
10
147.732
20
-161.25
11
147.542
21
-161.155
0
LINE
8
BLACK
6
CONTINUOUS
10
147.542
20
-161.155
11
147.446
21
-161.059
0
LINE
8
BLACK
6
CONTINUOUS
10
147.446
20
-161.059
11
147.351
21
-160.869
0
LINE
8
BLACK
6
CONTINUOUS
10
147.351
20
-160.869
11
147.256
21
-160.488
0
LINE
8
BLACK
6
CONTINUOUS
10
147.256
20
-160.488
11
147.256
21
-160.012
0
LINE
8
BLACK
6
CONTINUOUS
10
147.256
20
-160.012
11
147.351
21
-159.631
0
LINE
8
BLACK
6
CONTINUOUS
10
147.351
20
-159.631
11
147.446
21
-159.44
0
LINE
8
BLACK
6
CONTINUOUS
10
147.446
20
-159.44
11
147.542
21
-159.345
0
LINE
8
BLACK
6
CONTINUOUS
10
147.542
20
-159.345
11
147.732
21
-159.25
0
LINE
8
BLACK
6
CONTINUOUS
10
149.256
20
-161.059
11
149.351
21
-161.155
0
LINE
8
BLACK
6
CONTINUOUS
10
149.351
20
-161.155
11
149.256
21
-161.25
0
LINE
8
BLACK
6
CONTINUOUS
10
149.256
20
-161.25
11
149.161
21
-161.155
0
LINE
8
BLACK
6
CONTINUOUS
10
149.161
20
-161.155
11
149.256
21
-161.059
0
LINE
8
BLACK
6
CONTINUOUS
10
149.256
20
-161.059
11
149.256
21
-161.25
0
LINE
8
BLACK
6
CONTINUOUS
10
150.589
20
-159.25
11
150.78
21
-159.25
0
LINE
8
BLACK
6
CONTINUOUS
10
150.78
20
-159.25
11
150.97
21
-159.345
0
LINE
8
BLACK
6
CONTINUOUS
10
150.97
20
-159.345
11
151.065
21
-159.44
0
LINE
8
BLACK
6
CONTINUOUS
10
151.065
20
-159.44
11
151.161
21
-159.631
0
LINE
8
BLACK
6
CONTINUOUS
10
151.161
20
-159.631
11
151.256
21
-160.012
0
LINE
8
BLACK
6
CONTINUOUS
10
151.256
20
-160.012
11
151.256
21
-160.488
0
LINE
8
BLACK
6
CONTINUOUS
10
151.256
20
-160.488
11
151.161
21
-160.869
0
LINE
8
BLACK
6
CONTINUOUS
10
151.161
20
-160.869
11
151.065
21
-161.059
0
LINE
8
BLACK
6
CONTINUOUS
10
151.065
20
-161.059
11
150.97
21
-161.155
0
LINE
8
BLACK
6
CONTINUOUS
10
150.97
20
-161.155
11
150.78
21
-161.25
0
LINE
8
BLACK
6
CONTINUOUS
10
150.78
20
-161.25
11
150.589
21
-161.25
0
LINE
8
BLACK
6
CONTINUOUS
10
150.589
20
-161.25
11
150.399
21
-161.155
0
LINE
8
BLACK
6
CONTINUOUS
10
150.399
20
-161.155
11
150.304
21
-161.059
0
LINE
8
BLACK
6
CONTINUOUS
10
150.304
20
-161.059
11
150.208
21
-160.869
0
LINE
8
BLACK
6
CONTINUOUS
10
150.208
20
-160.869
11
150.113
21
-160.488
0
LINE
8
BLACK
6
CONTINUOUS
10
150.113
20
-160.488
11
150.113
21
-160.012
0
LINE
8
BLACK
6
CONTINUOUS
10
150.113
20
-160.012
11
150.208
21
-159.631
0
LINE
8
BLACK
6
CONTINUOUS
10
150.208
20
-159.631
11
150.304
21
-159.44
0
LINE
8
BLACK
6
CONTINUOUS
10
150.304
20
-159.44
11
150.399
21
-159.345
0
LINE
8
BLACK
6
CONTINUOUS
10
150.399
20
-159.345
11
150.589
21
-159.25
0
LINE
8
BLACK
6
CONTINUOUS
10
151.923
20
-159.25
11
153.161
21
-159.25
0
LINE
8
BLACK
6
CONTINUOUS
10
153.161
20
-159.25
11
152.494
21
-160.012
0
LINE
8
BLACK
6
CONTINUOUS
10
152.494
20
-160.012
11
152.78
21
-160.012
0
LINE
8
BLACK
6
CONTINUOUS
10
152.78
20
-160.012
11
152.97
21
-160.107
0
LINE
8
BLACK
6
CONTINUOUS
10
152.97
20
-160.107
11
153.065
21
-160.202
0
LINE
8
BLACK
6
CONTINUOUS
10
153.065
20
-160.202
11
153.161
21
-160.393
0
LINE
8
BLACK
6
CONTINUOUS
10
153.161
20
-160.393
11
153.161
21
-160.869
0
LINE
8
BLACK
6
CONTINUOUS
10
153.161
20
-160.869
11
153.065
21
-161.059
0
LINE
8
BLACK
6
CONTINUOUS
10
153.065
20
-161.059
11
152.97
21
-161.155
0
LINE
8
BLACK
6
CONTINUOUS
10
152.97
20
-161.155
11
152.78
21
-161.25
0
LINE
8
BLACK
6
CONTINUOUS
10
152.78
20
-161.25
11
152.208
21
-161.25
0
LINE
8
BLACK
6
CONTINUOUS
10
152.208
20
-161.25
11
152.018
21
-161.155
0
LINE
8
BLACK
6
CONTINUOUS
10
152.018
20
-161.155
11
151.923
21
-161.059
0
LINE
8
BLACK
6
CONTINUOUS
10
154.113
20
-161.25
11
154.494
21
-161.25
0
LINE
8
BLACK
6
CONTINUOUS
10
154.494
20
-161.25
11
154.685
21
-161.155
0
LINE
8
BLACK
6
CONTINUOUS
10
154.685
20
-161.155
11
154.78
21
-161.059
0
LINE
8
BLACK
6
CONTINUOUS
10
154.78
20
-161.059
11
154.97
21
-160.774
0
LINE
8
BLACK
6
CONTINUOUS
10
154.97
20
-160.774
11
155.065
21
-160.393
0
LINE
8
BLACK
6
CONTINUOUS
10
155.065
20
-160.393
11
155.065
21
-159.631
0
LINE
8
BLACK
6
CONTINUOUS
10
155.065
20
-159.631
11
154.97
21
-159.44
0
LINE
8
BLACK
6
CONTINUOUS
10
154.97
20
-159.44
11
154.875
21
-159.345
0
LINE
8
BLACK
6
CONTINUOUS
10
154.875
20
-159.345
11
154.685
21
-159.25
0
LINE
8
BLACK
6
CONTINUOUS
10
154.685
20
-159.25
11
154.304
21
-159.25
0
LINE
8
BLACK
6
CONTINUOUS
10
154.304
20
-159.25
11
154.113
21
-159.345
0
LINE
8
BLACK
6
CONTINUOUS
10
154.113
20
-159.345
11
154.018
21
-159.44
0
LINE
8
BLACK
6
CONTINUOUS
10
154.018
20
-159.44
11
153.923
21
-159.631
0
LINE
8
BLACK
6
CONTINUOUS
10
153.923
20
-159.631
11
153.923
21
-160.107
0
LINE
8
BLACK
6
CONTINUOUS
10
153.923
20
-160.107
11
154.018
21
-160.297
0
LINE
8
BLACK
6
CONTINUOUS
10
154.018
20
-160.297
11
154.113
21
-160.393
0
LINE
8
BLACK
6
CONTINUOUS
10
154.113
20
-160.393
11
154.304
21
-160.488
0
LINE
8
BLACK
6
CONTINUOUS
10
154.304
20
-160.488
11
154.685
21
-160.488
0
LINE
8
BLACK
6
CONTINUOUS
10
154.685
20
-160.488
11
154.875
21
-160.393
0
LINE
8
BLACK
6
CONTINUOUS
10
154.875
20
-160.393
11
154.97
21
-160.297
0
LINE
8
BLACK
6
CONTINUOUS
10
154.97
20
-160.297
11
155.065
21
-160.107
0
LINE
8
BLACK
6
CONTINUOUS
10
156.78
20
-159.916
11
156.78
21
-161.25
0
LINE
8
BLACK
6
CONTINUOUS
10
156.304
20
-159.155
11
155.827
21
-160.583
0
LINE
8
BLACK
6
CONTINUOUS
10
155.827
20
-160.583
11
157.065
21
-160.583
0
LINE
8
BLACK
6
CONTINUOUS
10
157.732
20
-159.25
11
157.732
21
-159.631
0
LINE
8
BLACK
6
CONTINUOUS
10
158.494
20
-159.25
11
158.494
21
-159.631
0
LINE
8
BLACK
6
CONTINUOUS
10
161.123
20
-162.012
11
161.027
21
-161.916
0
LINE
8
BLACK
6
CONTINUOUS
10
161.027
20
-161.916
11
160.837
21
-161.631
0
LINE
8
BLACK
6
CONTINUOUS
10
160.837
20
-161.631
11
160.742
21
-161.44
0
LINE
8
BLACK
6
CONTINUOUS
10
160.742
20
-161.44
11
160.646
21
-161.155
0
LINE
8
BLACK
6
CONTINUOUS
10
160.646
20
-161.155
11
160.551
21
-160.678
0
LINE
8
BLACK
6
CONTINUOUS
10
160.551
20
-160.678
11
160.551
21
-160.297
0
LINE
8
BLACK
6
CONTINUOUS
10
160.551
20
-160.297
11
160.646
21
-159.821
0
LINE
8
BLACK
6
CONTINUOUS
10
160.646
20
-159.821
11
160.742
21
-159.535
0
LINE
8
BLACK
6
CONTINUOUS
10
160.742
20
-159.535
11
160.837
21
-159.345
0
LINE
8
BLACK
6
CONTINUOUS
10
160.837
20
-159.345
11
161.027
21
-159.059
0
LINE
8
BLACK
6
CONTINUOUS
10
161.027
20
-159.059
11
161.123
21
-158.964
0
LINE
8
BLACK
6
CONTINUOUS
10
161.694
20
-159.25
11
162.932
21
-159.25
0
LINE
8
BLACK
6
CONTINUOUS
10
162.932
20
-159.25
11
162.265
21
-160.012
0
LINE
8
BLACK
6
CONTINUOUS
10
162.265
20
-160.012
11
162.551
21
-160.012
0
LINE
8
BLACK
6
CONTINUOUS
10
162.551
20
-160.012
11
162.742
21
-160.107
0
LINE
8
BLACK
6
CONTINUOUS
10
162.742
20
-160.107
11
162.837
21
-160.202
0
LINE
8
BLACK
6
CONTINUOUS
10
162.837
20
-160.202
11
162.932
21
-160.393
0
LINE
8
BLACK
6
CONTINUOUS
10
162.932
20
-160.393
11
162.932
21
-160.869
0
LINE
8
BLACK
6
CONTINUOUS
10
162.932
20
-160.869
11
162.837
21
-161.059
0
LINE
8
BLACK
6
CONTINUOUS
10
162.837
20
-161.059
11
162.742
21
-161.155
0
LINE
8
BLACK
6
CONTINUOUS
10
162.742
20
-161.155
11
162.551
21
-161.25
0
LINE
8
BLACK
6
CONTINUOUS
10
162.551
20
-161.25
11
161.98
21
-161.25
0
LINE
8
BLACK
6
CONTINUOUS
10
161.98
20
-161.25
11
161.789
21
-161.155
0
LINE
8
BLACK
6
CONTINUOUS
10
161.789
20
-161.155
11
161.694
21
-161.059
0
LINE
8
BLACK
6
CONTINUOUS
10
163.694
20
-159.44
11
163.789
21
-159.345
0
LINE
8
BLACK
6
CONTINUOUS
10
163.789
20
-159.345
11
163.98
21
-159.25
0
LINE
8
BLACK
6
CONTINUOUS
10
163.98
20
-159.25
11
164.456
21
-159.25
0
LINE
8
BLACK
6
CONTINUOUS
10
164.456
20
-159.25
11
164.646
21
-159.345
0
LINE
8
BLACK
6
CONTINUOUS
10
164.646
20
-159.345
11
164.742
21
-159.44
0
LINE
8
BLACK
6
CONTINUOUS
10
164.742
20
-159.44
11
164.837
21
-159.631
0
LINE
8
BLACK
6
CONTINUOUS
10
164.837
20
-159.631
11
164.837
21
-159.821
0
LINE
8
BLACK
6
CONTINUOUS
10
164.837
20
-159.821
11
164.742
21
-160.107
0
LINE
8
BLACK
6
CONTINUOUS
10
164.742
20
-160.107
11
163.599
21
-161.25
0
LINE
8
BLACK
6
CONTINUOUS
10
163.599
20
-161.25
11
164.837
21
-161.25
0
LINE
8
BLACK
6
CONTINUOUS
10
166.894
20
-161.25
11
166.894
21
-159.25
0
LINE
8
BLACK
6
CONTINUOUS
10
167.751
20
-161.25
11
167.751
21
-160.202
0
LINE
8
BLACK
6
CONTINUOUS
10
167.751
20
-160.202
11
167.656
21
-160.012
0
LINE
8
BLACK
6
CONTINUOUS
10
167.656
20
-160.012
11
167.465
21
-159.916
0
LINE
8
BLACK
6
CONTINUOUS
10
167.465
20
-159.916
11
167.18
21
-159.916
0
LINE
8
BLACK
6
CONTINUOUS
10
167.18
20
-159.916
11
166.989
21
-160.012
0
LINE
8
BLACK
6
CONTINUOUS
10
166.989
20
-160.012
11
166.894
21
-160.107
0
LINE
8
BLACK
6
CONTINUOUS
10
168.989
20
-161.25
11
168.799
21
-161.155
0
LINE
8
BLACK
6
CONTINUOUS
10
168.799
20
-161.155
11
168.704
21
-161.059
0
LINE
8
BLACK
6
CONTINUOUS
10
168.704
20
-161.059
11
168.608
21
-160.869
0
LINE
8
BLACK
6
CONTINUOUS
10
168.608
20
-160.869
11
168.608
21
-160.297
0
LINE
8
BLACK
6
CONTINUOUS
10
168.608
20
-160.297
11
168.704
21
-160.107
0
LINE
8
BLACK
6
CONTINUOUS
10
168.704
20
-160.107
11
168.799
21
-160.012
0
LINE
8
BLACK
6
CONTINUOUS
10
168.799
20
-160.012
11
168.989
21
-159.916
0
LINE
8
BLACK
6
CONTINUOUS
10
168.989
20
-159.916
11
169.275
21
-159.916
0
LINE
8
BLACK
6
CONTINUOUS
10
169.275
20
-159.916
11
169.465
21
-160.012
0
LINE
8
BLACK
6
CONTINUOUS
10
169.465
20
-160.012
11
169.561
21
-160.107
0
LINE
8
BLACK
6
CONTINUOUS
10
169.561
20
-160.107
11
169.656
21
-160.297
0
LINE
8
BLACK
6
CONTINUOUS
10
169.656
20
-160.297
11
169.656
21
-160.869
0
LINE
8
BLACK
6
CONTINUOUS
10
169.656
20
-160.869
11
169.561
21
-161.059
0
LINE
8
BLACK
6
CONTINUOUS
10
169.561
20
-161.059
11
169.465
21
-161.155
0
LINE
8
BLACK
6
CONTINUOUS
10
169.465
20
-161.155
11
169.275
21
-161.25
0
LINE
8
BLACK
6
CONTINUOUS
10
169.275
20
-161.25
11
168.989
21
-161.25
0
LINE
8
BLACK
6
CONTINUOUS
10
170.799
20
-161.25
11
170.608
21
-161.155
0
LINE
8
BLACK
6
CONTINUOUS
10
170.608
20
-161.155
11
170.513
21
-160.964
0
LINE
8
BLACK
6
CONTINUOUS
10
170.513
20
-160.964
11
170.513
21
-159.25
0
LINE
8
BLACK
6
CONTINUOUS
10
172.323
20
-161.155
11
172.132
21
-161.25
0
LINE
8
BLACK
6
CONTINUOUS
10
172.132
20
-161.25
11
171.751
21
-161.25
0
LINE
8
BLACK
6
CONTINUOUS
10
171.751
20
-161.25
11
171.561
21
-161.155
0
LINE
8
BLACK
6
CONTINUOUS
10
171.561
20
-161.155
11
171.465
21
-160.964
0
LINE
8
BLACK
6
CONTINUOUS
10
171.465
20
-160.964
11
171.465
21
-160.202
0
LINE
8
BLACK
6
CONTINUOUS
10
171.465
20
-160.202
11
171.561
21
-160.012
0
LINE
8
BLACK
6
CONTINUOUS
10
171.561
20
-160.012
11
171.751
21
-159.916
0
LINE
8
BLACK
6
CONTINUOUS
10
171.751
20
-159.916
11
172.132
21
-159.916
0
LINE
8
BLACK
6
CONTINUOUS
10
172.132
20
-159.916
11
172.323
21
-160.012
0
LINE
8
BLACK
6
CONTINUOUS
10
172.323
20
-160.012
11
172.418
21
-160.202
0
LINE
8
BLACK
6
CONTINUOUS
10
172.418
20
-160.202
11
172.418
21
-160.393
0
LINE
8
BLACK
6
CONTINUOUS
10
172.418
20
-160.393
11
171.465
21
-160.583
0
LINE
8
BLACK
6
CONTINUOUS
10
173.18
20
-161.155
11
173.37
21
-161.25
0
LINE
8
BLACK
6
CONTINUOUS
10
173.37
20
-161.25
11
173.751
21
-161.25
0
LINE
8
BLACK
6
CONTINUOUS
10
173.751
20
-161.25
11
173.942
21
-161.155
0
LINE
8
BLACK
6
CONTINUOUS
10
173.942
20
-161.155
11
174.037
21
-160.964
0
LINE
8
BLACK
6
CONTINUOUS
10
174.037
20
-160.964
11
174.037
21
-160.869
0
LINE
8
BLACK
6
CONTINUOUS
10
174.037
20
-160.869
11
173.942
21
-160.678
0
LINE
8
BLACK
6
CONTINUOUS
10
173.942
20
-160.678
11
173.751
21
-160.583
0
LINE
8
BLACK
6
CONTINUOUS
10
173.751
20
-160.583
11
173.465
21
-160.583
0
LINE
8
BLACK
6
CONTINUOUS
10
173.465
20
-160.583
11
173.275
21
-160.488
0
LINE
8
BLACK
6
CONTINUOUS
10
173.275
20
-160.488
11
173.18
21
-160.297
0
LINE
8
BLACK
6
CONTINUOUS
10
173.18
20
-160.297
11
173.18
21
-160.202
0
LINE
8
BLACK
6
CONTINUOUS
10
173.18
20
-160.202
11
173.275
21
-160.012
0
LINE
8
BLACK
6
CONTINUOUS
10
173.275
20
-160.012
11
173.465
21
-159.916
0
LINE
8
BLACK
6
CONTINUOUS
10
173.465
20
-159.916
11
173.751
21
-159.916
0
LINE
8
BLACK
6
CONTINUOUS
10
173.751
20
-159.916
11
173.942
21
-160.012
0
LINE
8
BLACK
6
CONTINUOUS
10
174.704
20
-162.012
11
174.799
21
-161.916
0
LINE
8
BLACK
6
CONTINUOUS
10
174.799
20
-161.916
11
174.989
21
-161.631
0
LINE
8
BLACK
6
CONTINUOUS
10
174.989
20
-161.631
11
175.085
21
-161.44
0
LINE
8
BLACK
6
CONTINUOUS
10
175.085
20
-161.44
11
175.18
21
-161.155
0
LINE
8
BLACK
6
CONTINUOUS
10
175.18
20
-161.155
11
175.275
21
-160.678
0
LINE
8
BLACK
6
CONTINUOUS
10
175.275
20
-160.678
11
175.275
21
-160.297
0
LINE
8
BLACK
6
CONTINUOUS
10
175.275
20
-160.297
11
175.18
21
-159.821
0
LINE
8
BLACK
6
CONTINUOUS
10
175.18
20
-159.821
11
175.085
21
-159.535
0
LINE
8
BLACK
6
CONTINUOUS
10
175.085
20
-159.535
11
174.989
21
-159.345
0
LINE
8
BLACK
6
CONTINUOUS
10
174.989
20
-159.345
11
174.799
21
-159.059
0
LINE
8
BLACK
6
CONTINUOUS
10
174.799
20
-159.059
11
174.704
21
-158.964
  0
ENDSEC
  0
EOF
