  0
SECTION
  2
HEADER
  9
$ANGBASE
  50
0.0
  9
$ANGDIR
  70
1
  9
$MEASUREMENT
  70
1
  0
ENDSEC
  0
SECTION
  2
TABLES
  0
TABLE
  2
LTYPE
  70
4
  0
LTYPE
  5
40F
  2
CONTINUOUS
  70
0
  3
Solid line
  72
65
  73
0
  40
0.0
  0
LTYPE
  5
410
  2
DASHDOT
 70
0
  3
Dash Dot ____ _ ____ _
 72
65
 73
4
 40
2.0
 49
1.25
 49
-0.25
 49
0.25
 49
-0.25
  0
LTYPE
  5
411
  2
DASHED
 70
0
  3
Dashed __ __ __ __ __
 72
65
 73
2
 40
0.75
 49
0.5
 49
-0.25
  0
LTYPE
  5
43B
  2
DOTTED
 70
0
  3
Dotted .  .  .  .
 72
65
 73
2
 40
0.2
 49
0.0
 49
-0.2
  0
ENDTAB
  0
TABLE
  2
STYLE
  70
4
  0
STYLE
  2
KICAD
  70
0
  40
0
  41
1
  42
1
  50
0
  71
0
  3
isocp.shx
  0
STYLE
  2
KICADB
  70
0
  40
0
  41
1
  42
1
  50
0
  71
0
  3
isocp.shx
  0
STYLE
  2
KICADI
  70
0
  40
0
  41
1
  42
1
  50
15
  71
0
  3
isocp.shx
  0
STYLE
  2
KICADBI
  70
0
  40
0
  41
1
  42
1
  50
15
  71
0
  3
isocp.shx
  0
ENDTAB
  0
TABLE
  2
LAYER
  70
1
  0
LAYER
  2
BLACK
  70
0
  62
7
  6
CONTINUOUS
  0
ENDTAB
  0
ENDSEC
  0
SECTION
  2
ENTITIES
0
LINE
8
BLACK
6
CONTINUOUS
10
126.5
20
-77.69
11
126.5
21
-148.81
0
LINE
8
BLACK
6
CONTINUOUS
10
149.233
20
-77.69
11
149.233
21
-148.81
0
LINE
8
BLACK
6
CONTINUOUS
10
126.5
20
-148.81
11
149.233
21
-148.81
0
LINE
8
BLACK
6
CONTINUOUS
10
126.5
20
-77.69
11
149.233
21
-77.69
0
LINE
8
BLACK
6
CONTINUOUS
10
128.951
20
-151.77
11
128.951
21
-149.77
0
LINE
8
BLACK
6
CONTINUOUS
10
128.951
20
-149.77
11
129.427
21
-149.77
0
LINE
8
BLACK
6
CONTINUOUS
10
129.427
20
-149.77
11
129.713
21
-149.865
0
LINE
8
BLACK
6
CONTINUOUS
10
129.713
20
-149.865
11
129.904
21
-150.055
0
LINE
8
BLACK
6
CONTINUOUS
10
129.904
20
-150.055
11
129.999
21
-150.246
0
LINE
8
BLACK
6
CONTINUOUS
10
129.999
20
-150.246
11
130.094
21
-150.627
0
LINE
8
BLACK
6
CONTINUOUS
10
130.094
20
-150.627
11
130.094
21
-150.913
0
LINE
8
BLACK
6
CONTINUOUS
10
130.094
20
-150.913
11
129.999
21
-151.294
0
LINE
8
BLACK
6
CONTINUOUS
10
129.999
20
-151.294
11
129.904
21
-151.484
0
LINE
8
BLACK
6
CONTINUOUS
10
129.904
20
-151.484
11
129.713
21
-151.675
0
LINE
8
BLACK
6
CONTINUOUS
10
129.713
20
-151.675
11
129.427
21
-151.77
0
LINE
8
BLACK
6
CONTINUOUS
10
129.427
20
-151.77
11
128.951
21
-151.77
0
LINE
8
BLACK
6
CONTINUOUS
10
130.951
20
-151.77
11
130.951
21
-150.436
0
LINE
8
BLACK
6
CONTINUOUS
10
130.951
20
-150.817
11
131.046
21
-150.627
0
LINE
8
BLACK
6
CONTINUOUS
10
131.046
20
-150.627
11
131.142
21
-150.532
0
LINE
8
BLACK
6
CONTINUOUS
10
131.142
20
-150.532
11
131.332
21
-150.436
0
LINE
8
BLACK
6
CONTINUOUS
10
131.332
20
-150.436
11
131.523
21
-150.436
0
LINE
8
BLACK
6
CONTINUOUS
10
132.189
20
-151.77
11
132.189
21
-150.436
0
LINE
8
BLACK
6
CONTINUOUS
10
132.189
20
-149.77
11
132.094
21
-149.865
0
LINE
8
BLACK
6
CONTINUOUS
10
132.094
20
-149.865
11
132.189
21
-149.96
0
LINE
8
BLACK
6
CONTINUOUS
10
132.189
20
-149.96
11
132.285
21
-149.865
0
LINE
8
BLACK
6
CONTINUOUS
10
132.285
20
-149.865
11
132.189
21
-149.77
0
LINE
8
BLACK
6
CONTINUOUS
10
132.189
20
-149.77
11
132.189
21
-149.96
0
LINE
8
BLACK
6
CONTINUOUS
10
133.427
20
-151.77
11
133.237
21
-151.675
0
LINE
8
BLACK
6
CONTINUOUS
10
133.237
20
-151.675
11
133.142
21
-151.484
0
LINE
8
BLACK
6
CONTINUOUS
10
133.142
20
-151.484
11
133.142
21
-149.77
0
LINE
8
BLACK
6
CONTINUOUS
10
134.475
20
-151.77
11
134.285
21
-151.675
0
LINE
8
BLACK
6
CONTINUOUS
10
134.285
20
-151.675
11
134.189
21
-151.484
0
LINE
8
BLACK
6
CONTINUOUS
10
134.189
20
-151.484
11
134.189
21
-149.77
0
LINE
8
BLACK
6
CONTINUOUS
10
136.437
20
-151.77
11
136.437
21
-149.77
0
LINE
8
BLACK
6
CONTINUOUS
10
136.437
20
-149.77
11
137.104
21
-151.198
0
LINE
8
BLACK
6
CONTINUOUS
10
137.104
20
-151.198
11
137.77
21
-149.77
0
LINE
8
BLACK
6
CONTINUOUS
10
137.77
20
-149.77
11
137.77
21
-151.77
0
LINE
8
BLACK
6
CONTINUOUS
10
139.58
20
-151.77
11
139.58
21
-150.722
0
LINE
8
BLACK
6
CONTINUOUS
10
139.58
20
-150.722
11
139.485
21
-150.532
0
LINE
8
BLACK
6
CONTINUOUS
10
139.485
20
-150.532
11
139.294
21
-150.436
0
LINE
8
BLACK
6
CONTINUOUS
10
139.294
20
-150.436
11
138.913
21
-150.436
0
LINE
8
BLACK
6
CONTINUOUS
10
138.913
20
-150.436
11
138.723
21
-150.532
0
LINE
8
BLACK
6
CONTINUOUS
10
139.58
20
-151.675
11
139.389
21
-151.77
0
LINE
8
BLACK
6
CONTINUOUS
10
139.389
20
-151.77
11
138.913
21
-151.77
0
LINE
8
BLACK
6
CONTINUOUS
10
138.913
20
-151.77
11
138.723
21
-151.675
0
LINE
8
BLACK
6
CONTINUOUS
10
138.723
20
-151.675
11
138.627
21
-151.484
0
LINE
8
BLACK
6
CONTINUOUS
10
138.627
20
-151.484
11
138.627
21
-151.294
0
LINE
8
BLACK
6
CONTINUOUS
10
138.627
20
-151.294
11
138.723
21
-151.103
0
LINE
8
BLACK
6
CONTINUOUS
10
138.723
20
-151.103
11
138.913
21
-151.008
0
LINE
8
BLACK
6
CONTINUOUS
10
138.913
20
-151.008
11
139.389
21
-151.008
0
LINE
8
BLACK
6
CONTINUOUS
10
139.389
20
-151.008
11
139.58
21
-150.913
0
LINE
8
BLACK
6
CONTINUOUS
10
140.532
20
-150.436
11
140.532
21
-152.436
0
LINE
8
BLACK
6
CONTINUOUS
10
140.532
20
-150.532
11
140.723
21
-150.436
0
LINE
8
BLACK
6
CONTINUOUS
10
140.723
20
-150.436
11
141.104
21
-150.436
0
LINE
8
BLACK
6
CONTINUOUS
10
141.104
20
-150.436
11
141.294
21
-150.532
0
LINE
8
BLACK
6
CONTINUOUS
10
141.294
20
-150.532
11
141.389
21
-150.627
0
LINE
8
BLACK
6
CONTINUOUS
10
141.389
20
-150.627
11
141.485
21
-150.817
0
LINE
8
BLACK
6
CONTINUOUS
10
141.485
20
-150.817
11
141.485
21
-151.389
0
LINE
8
BLACK
6
CONTINUOUS
10
141.485
20
-151.389
11
141.389
21
-151.579
0
LINE
8
BLACK
6
CONTINUOUS
10
141.389
20
-151.579
11
141.294
21
-151.675
0
LINE
8
BLACK
6
CONTINUOUS
10
141.294
20
-151.675
11
141.104
21
-151.77
0
LINE
8
BLACK
6
CONTINUOUS
10
141.104
20
-151.77
11
140.723
21
-151.77
0
LINE
8
BLACK
6
CONTINUOUS
10
140.723
20
-151.77
11
140.532
21
-151.675
0
LINE
8
BLACK
6
CONTINUOUS
10
142.342
20
-151.579
11
142.437
21
-151.675
0
LINE
8
BLACK
6
CONTINUOUS
10
142.437
20
-151.675
11
142.342
21
-151.77
0
LINE
8
BLACK
6
CONTINUOUS
10
142.342
20
-151.77
11
142.246
21
-151.675
0
LINE
8
BLACK
6
CONTINUOUS
10
142.246
20
-151.675
11
142.342
21
-151.579
0
LINE
8
BLACK
6
CONTINUOUS
10
142.342
20
-151.579
11
142.342
21
-151.77
0
LINE
8
BLACK
6
CONTINUOUS
10
142.342
20
-150.532
11
142.437
21
-150.627
0
LINE
8
BLACK
6
CONTINUOUS
10
142.437
20
-150.627
11
142.342
21
-150.722
0
LINE
8
BLACK
6
CONTINUOUS
10
142.342
20
-150.722
11
142.246
21
-150.627
0
LINE
8
BLACK
6
CONTINUOUS
10
142.246
20
-150.627
11
142.342
21
-150.532
0
LINE
8
BLACK
6
CONTINUOUS
10
142.342
20
-150.532
11
142.342
21
-150.722
  0
ENDSEC
  0
EOF
